ISO-10303-21;
HEADER;
/* Generated by software containing ST-Developer
 * from STEP Tools, Inc. (www.steptools.com) 
 */

FILE_DESCRIPTION(
/* description */ ('KriTec Laufrolle D10 Rundschliff'),
/* implementation_level */ '2;1');

FILE_NAME(
/* name */ 
'C:\\Arbeitsordner\\Designs\\Kuhlemann\\neuteile\\Lagereinheit 8 D10\\
11226_KriTec_Laufrolle_D10_Rundschliff\\11226 KriTec Laufrolle D10 Run
dschliff.stp',
/* time_stamp */ '2019-11-14T15:09:25+01:00',
/* author */ ('Nell'),
/* organization */ (''),
/* preprocessor_version */ 'ST-DEVELOPER v17',
/* originating_system */ 'Autodesk Inventor 2018',
/* authorisation */ '');

FILE_SCHEMA (('AUTOMOTIVE_DESIGN { 1 0 10303 214 3 1 1 }'));
ENDSEC;

DATA;
#10=MECHANICAL_DESIGN_GEOMETRIC_PRESENTATION_REPRESENTATION('',(#13),#382);
#11=SHAPE_REPRESENTATION_RELATIONSHIP('SRR','None',#389,#12);
#12=ADVANCED_BREP_SHAPE_REPRESENTATION('',(#14),#381);
#13=STYLED_ITEM('',(#398),#14);
#14=MANIFOLD_SOLID_BREP('Volumenk\X\F6rper1',#197);
#15=TOROIDAL_SURFACE('',#234,16.8,5.);
#16=FACE_BOUND('',#36,.T.);
#17=FACE_BOUND('',#39,.T.);
#18=FACE_BOUND('',#44,.T.);
#19=FACE_BOUND('',#47,.T.);
#20=PLANE('',#221);
#21=PLANE('',#227);
#22=PLANE('',#242);
#23=PLANE('',#248);
#24=FACE_OUTER_BOUND('',#34,.T.);
#25=FACE_OUTER_BOUND('',#35,.T.);
#26=FACE_OUTER_BOUND('',#37,.T.);
#27=FACE_OUTER_BOUND('',#38,.T.);
#28=FACE_OUTER_BOUND('',#40,.T.);
#29=FACE_OUTER_BOUND('',#41,.T.);
#30=FACE_OUTER_BOUND('',#42,.T.);
#31=FACE_OUTER_BOUND('',#43,.T.);
#32=FACE_OUTER_BOUND('',#45,.T.);
#33=FACE_OUTER_BOUND('',#46,.T.);
#34=EDGE_LOOP('',(#128,#129,#130,#131,#132));
#35=EDGE_LOOP('',(#133,#134));
#36=EDGE_LOOP('',(#135));
#37=EDGE_LOOP('',(#136,#137,#138,#139,#140,#141));
#38=EDGE_LOOP('',(#142,#143));
#39=EDGE_LOOP('',(#144,#145));
#40=EDGE_LOOP('',(#146,#147,#148,#149,#150,#151,#152));
#41=EDGE_LOOP('',(#153,#154,#155,#156,#157,#158,#159,#160));
#42=EDGE_LOOP('',(#161,#162,#163,#164,#165,#166,#167));
#43=EDGE_LOOP('',(#168,#169));
#44=EDGE_LOOP('',(#170,#171));
#45=EDGE_LOOP('',(#172,#173,#174,#175,#176,#177));
#46=EDGE_LOOP('',(#178,#179));
#47=EDGE_LOOP('',(#180,#181));
#48=LINE('',#327,#53);
#49=LINE('',#339,#54);
#50=LINE('',#351,#55);
#51=LINE('',#366,#56);
#52=LINE('',#377,#57);
#53=VECTOR('',#257,4.);
#54=VECTOR('',#272,6.75);
#55=VECTOR('',#285,13.5);
#56=VECTOR('',#304,13.5);
#57=VECTOR('',#317,6.75);
#58=CIRCLE('',#218,4.);
#59=CIRCLE('',#219,4.);
#60=CIRCLE('',#220,4.);
#61=CIRCLE('',#222,6.75);
#62=CIRCLE('',#223,6.75);
#63=CIRCLE('',#225,6.75);
#64=CIRCLE('',#226,6.75);
#65=CIRCLE('',#228,13.5);
#66=CIRCLE('',#229,13.5);
#67=CIRCLE('',#231,13.5);
#68=CIRCLE('',#232,13.5);
#69=CIRCLE('',#233,13.5);
#70=CIRCLE('',#235,5.);
#71=CIRCLE('',#236,13.5);
#72=CIRCLE('',#237,13.5);
#73=CIRCLE('',#238,13.5);
#74=CIRCLE('',#240,13.5);
#75=CIRCLE('',#241,13.5);
#76=CIRCLE('',#243,6.75);
#77=CIRCLE('',#244,6.75);
#78=CIRCLE('',#246,6.75);
#79=CIRCLE('',#247,6.75);
#80=VERTEX_POINT('',#322);
#81=VERTEX_POINT('',#323);
#82=VERTEX_POINT('',#326);
#83=VERTEX_POINT('',#330);
#84=VERTEX_POINT('',#331);
#85=VERTEX_POINT('',#335);
#86=VERTEX_POINT('',#336);
#87=VERTEX_POINT('',#341);
#88=VERTEX_POINT('',#342);
#89=VERTEX_POINT('',#346);
#90=VERTEX_POINT('',#347);
#91=VERTEX_POINT('',#349);
#92=VERTEX_POINT('',#354);
#93=VERTEX_POINT('',#356);
#94=VERTEX_POINT('',#358);
#95=VERTEX_POINT('',#362);
#96=VERTEX_POINT('',#363);
#97=VERTEX_POINT('',#368);
#98=VERTEX_POINT('',#369);
#99=VERTEX_POINT('',#373);
#100=VERTEX_POINT('',#374);
#101=EDGE_CURVE('',#80,#81,#58,.T.);
#102=EDGE_CURVE('',#81,#80,#59,.T.);
#103=EDGE_CURVE('',#81,#82,#48,.T.);
#104=EDGE_CURVE('',#82,#82,#60,.T.);
#105=EDGE_CURVE('',#83,#84,#61,.T.);
#106=EDGE_CURVE('',#84,#83,#62,.T.);
#107=EDGE_CURVE('',#85,#86,#63,.T.);
#108=EDGE_CURVE('',#86,#85,#64,.T.);
#109=EDGE_CURVE('',#86,#84,#49,.T.);
#110=EDGE_CURVE('',#87,#88,#65,.T.);
#111=EDGE_CURVE('',#88,#87,#66,.T.);
#112=EDGE_CURVE('',#89,#90,#67,.T.);
#113=EDGE_CURVE('',#91,#89,#68,.T.);
#114=EDGE_CURVE('',#91,#88,#50,.T.);
#115=EDGE_CURVE('',#90,#91,#69,.T.);
#116=EDGE_CURVE('',#90,#92,#70,.T.);
#117=EDGE_CURVE('',#93,#92,#71,.T.);
#118=EDGE_CURVE('',#94,#93,#72,.T.);
#119=EDGE_CURVE('',#92,#94,#73,.T.);
#120=EDGE_CURVE('',#95,#96,#74,.T.);
#121=EDGE_CURVE('',#96,#95,#75,.T.);
#122=EDGE_CURVE('',#96,#94,#51,.T.);
#123=EDGE_CURVE('',#97,#98,#76,.T.);
#124=EDGE_CURVE('',#98,#97,#77,.T.);
#125=EDGE_CURVE('',#99,#100,#78,.T.);
#126=EDGE_CURVE('',#100,#99,#79,.T.);
#127=EDGE_CURVE('',#100,#98,#52,.T.);
#128=ORIENTED_EDGE('',*,*,#101,.F.);
#129=ORIENTED_EDGE('',*,*,#102,.F.);
#130=ORIENTED_EDGE('',*,*,#103,.T.);
#131=ORIENTED_EDGE('',*,*,#104,.F.);
#132=ORIENTED_EDGE('',*,*,#103,.F.);
#133=ORIENTED_EDGE('',*,*,#105,.F.);
#134=ORIENTED_EDGE('',*,*,#106,.F.);
#135=ORIENTED_EDGE('',*,*,#104,.T.);
#136=ORIENTED_EDGE('',*,*,#107,.F.);
#137=ORIENTED_EDGE('',*,*,#108,.F.);
#138=ORIENTED_EDGE('',*,*,#109,.T.);
#139=ORIENTED_EDGE('',*,*,#106,.T.);
#140=ORIENTED_EDGE('',*,*,#105,.T.);
#141=ORIENTED_EDGE('',*,*,#109,.F.);
#142=ORIENTED_EDGE('',*,*,#110,.F.);
#143=ORIENTED_EDGE('',*,*,#111,.F.);
#144=ORIENTED_EDGE('',*,*,#107,.T.);
#145=ORIENTED_EDGE('',*,*,#108,.T.);
#146=ORIENTED_EDGE('',*,*,#112,.F.);
#147=ORIENTED_EDGE('',*,*,#113,.F.);
#148=ORIENTED_EDGE('',*,*,#114,.T.);
#149=ORIENTED_EDGE('',*,*,#111,.T.);
#150=ORIENTED_EDGE('',*,*,#110,.T.);
#151=ORIENTED_EDGE('',*,*,#114,.F.);
#152=ORIENTED_EDGE('',*,*,#115,.F.);
#153=ORIENTED_EDGE('',*,*,#112,.T.);
#154=ORIENTED_EDGE('',*,*,#116,.T.);
#155=ORIENTED_EDGE('',*,*,#117,.F.);
#156=ORIENTED_EDGE('',*,*,#118,.F.);
#157=ORIENTED_EDGE('',*,*,#119,.F.);
#158=ORIENTED_EDGE('',*,*,#116,.F.);
#159=ORIENTED_EDGE('',*,*,#115,.T.);
#160=ORIENTED_EDGE('',*,*,#113,.T.);
#161=ORIENTED_EDGE('',*,*,#120,.F.);
#162=ORIENTED_EDGE('',*,*,#121,.F.);
#163=ORIENTED_EDGE('',*,*,#122,.T.);
#164=ORIENTED_EDGE('',*,*,#118,.T.);
#165=ORIENTED_EDGE('',*,*,#117,.T.);
#166=ORIENTED_EDGE('',*,*,#119,.T.);
#167=ORIENTED_EDGE('',*,*,#122,.F.);
#168=ORIENTED_EDGE('',*,*,#120,.T.);
#169=ORIENTED_EDGE('',*,*,#121,.T.);
#170=ORIENTED_EDGE('',*,*,#123,.F.);
#171=ORIENTED_EDGE('',*,*,#124,.F.);
#172=ORIENTED_EDGE('',*,*,#125,.F.);
#173=ORIENTED_EDGE('',*,*,#126,.F.);
#174=ORIENTED_EDGE('',*,*,#127,.T.);
#175=ORIENTED_EDGE('',*,*,#124,.T.);
#176=ORIENTED_EDGE('',*,*,#123,.T.);
#177=ORIENTED_EDGE('',*,*,#127,.F.);
#178=ORIENTED_EDGE('',*,*,#125,.T.);
#179=ORIENTED_EDGE('',*,*,#126,.T.);
#180=ORIENTED_EDGE('',*,*,#101,.T.);
#181=ORIENTED_EDGE('',*,*,#102,.T.);
#182=CYLINDRICAL_SURFACE('',#217,4.);
#183=CYLINDRICAL_SURFACE('',#224,6.75);
#184=CYLINDRICAL_SURFACE('',#230,13.5);
#185=CYLINDRICAL_SURFACE('',#239,13.5);
#186=CYLINDRICAL_SURFACE('',#245,6.75);
#187=ADVANCED_FACE('',(#24),#182,.F.);
#188=ADVANCED_FACE('',(#25,#16),#20,.T.);
#189=ADVANCED_FACE('',(#26),#183,.T.);
#190=ADVANCED_FACE('',(#27,#17),#21,.T.);
#191=ADVANCED_FACE('',(#28),#184,.T.);
#192=ADVANCED_FACE('',(#29),#15,.F.);
#193=ADVANCED_FACE('',(#30),#185,.T.);
#194=ADVANCED_FACE('',(#31,#18),#22,.T.);
#195=ADVANCED_FACE('',(#32),#186,.T.);
#196=ADVANCED_FACE('',(#33,#19),#23,.T.);
#197=CLOSED_SHELL('',(#187,#188,#189,#190,#191,#192,#193,#194,#195,#196));
#198=DERIVED_UNIT_ELEMENT(#200,1.);
#199=DERIVED_UNIT_ELEMENT(#384,3.);
#200=(
MASS_UNIT()
NAMED_UNIT(*)
SI_UNIT($,.GRAM.)
);
#201=DERIVED_UNIT((#198,#199));
#202=MEASURE_REPRESENTATION_ITEM('density measure',
POSITIVE_RATIO_MEASURE(7.84),#201);
#203=PROPERTY_DEFINITION_REPRESENTATION(#208,#205);
#204=PROPERTY_DEFINITION_REPRESENTATION(#209,#206);
#205=REPRESENTATION('material name',(#207),#381);
#206=REPRESENTATION('density',(#202),#381);
#207=DESCRIPTIVE_REPRESENTATION_ITEM('1.3505 100 Cr 6 (W\X\E4lzl.st.)',
'1.3505 100 Cr 6 (W\X\E4lzl.st.)');
#208=PROPERTY_DEFINITION('material property','material name',#391);
#209=PROPERTY_DEFINITION('material property','density of part',#391);
#210=DATE_TIME_ROLE('creation_date');
#211=APPLIED_DATE_AND_TIME_ASSIGNMENT(#212,#210,(#391));
#212=DATE_AND_TIME(#213,#214);
#213=CALENDAR_DATE(2019,25,10);
#214=LOCAL_TIME(11,33,12.,#215);
#215=COORDINATED_UNIVERSAL_TIME_OFFSET(0,0,.BEHIND.);
#216=AXIS2_PLACEMENT_3D('placement',#320,#249,#250);
#217=AXIS2_PLACEMENT_3D('',#321,#251,#252);
#218=AXIS2_PLACEMENT_3D('',#324,#253,#254);
#219=AXIS2_PLACEMENT_3D('',#325,#255,#256);
#220=AXIS2_PLACEMENT_3D('',#328,#258,#259);
#221=AXIS2_PLACEMENT_3D('',#329,#260,#261);
#222=AXIS2_PLACEMENT_3D('',#332,#262,#263);
#223=AXIS2_PLACEMENT_3D('',#333,#264,#265);
#224=AXIS2_PLACEMENT_3D('',#334,#266,#267);
#225=AXIS2_PLACEMENT_3D('',#337,#268,#269);
#226=AXIS2_PLACEMENT_3D('',#338,#270,#271);
#227=AXIS2_PLACEMENT_3D('',#340,#273,#274);
#228=AXIS2_PLACEMENT_3D('',#343,#275,#276);
#229=AXIS2_PLACEMENT_3D('',#344,#277,#278);
#230=AXIS2_PLACEMENT_3D('',#345,#279,#280);
#231=AXIS2_PLACEMENT_3D('',#348,#281,#282);
#232=AXIS2_PLACEMENT_3D('',#350,#283,#284);
#233=AXIS2_PLACEMENT_3D('',#352,#286,#287);
#234=AXIS2_PLACEMENT_3D('',#353,#288,#289);
#235=AXIS2_PLACEMENT_3D('',#355,#290,#291);
#236=AXIS2_PLACEMENT_3D('',#357,#292,#293);
#237=AXIS2_PLACEMENT_3D('',#359,#294,#295);
#238=AXIS2_PLACEMENT_3D('',#360,#296,#297);
#239=AXIS2_PLACEMENT_3D('',#361,#298,#299);
#240=AXIS2_PLACEMENT_3D('',#364,#300,#301);
#241=AXIS2_PLACEMENT_3D('',#365,#302,#303);
#242=AXIS2_PLACEMENT_3D('',#367,#305,#306);
#243=AXIS2_PLACEMENT_3D('',#370,#307,#308);
#244=AXIS2_PLACEMENT_3D('',#371,#309,#310);
#245=AXIS2_PLACEMENT_3D('',#372,#311,#312);
#246=AXIS2_PLACEMENT_3D('',#375,#313,#314);
#247=AXIS2_PLACEMENT_3D('',#376,#315,#316);
#248=AXIS2_PLACEMENT_3D('',#378,#318,#319);
#249=DIRECTION('axis',(0.,0.,1.));
#250=DIRECTION('refdir',(1.,0.,0.));
#251=DIRECTION('center_axis',(1.,0.,0.));
#252=DIRECTION('ref_axis',(0.,1.,0.));
#253=DIRECTION('center_axis',(-1.,0.,0.));
#254=DIRECTION('ref_axis',(0.,1.,0.));
#255=DIRECTION('center_axis',(-1.,0.,0.));
#256=DIRECTION('ref_axis',(0.,1.,0.));
#257=DIRECTION('',(-1.,0.,0.));
#258=DIRECTION('center_axis',(1.,0.,0.));
#259=DIRECTION('ref_axis',(0.,1.,0.));
#260=DIRECTION('center_axis',(-1.,0.,0.));
#261=DIRECTION('ref_axis',(0.,0.,1.));
#262=DIRECTION('center_axis',(1.,0.,0.));
#263=DIRECTION('ref_axis',(0.,0.,-1.));
#264=DIRECTION('center_axis',(1.,0.,0.));
#265=DIRECTION('ref_axis',(0.,0.,-1.));
#266=DIRECTION('center_axis',(1.,0.,0.));
#267=DIRECTION('ref_axis',(0.,1.,0.));
#268=DIRECTION('center_axis',(1.,0.,0.));
#269=DIRECTION('ref_axis',(0.,0.,-1.));
#270=DIRECTION('center_axis',(1.,0.,0.));
#271=DIRECTION('ref_axis',(0.,0.,-1.));
#272=DIRECTION('',(-1.,0.,0.));
#273=DIRECTION('center_axis',(-1.,0.,0.));
#274=DIRECTION('ref_axis',(0.,0.,1.));
#275=DIRECTION('center_axis',(1.,0.,0.));
#276=DIRECTION('ref_axis',(0.,0.,-1.));
#277=DIRECTION('center_axis',(1.,0.,0.));
#278=DIRECTION('ref_axis',(0.,0.,-1.));
#279=DIRECTION('center_axis',(1.,0.,0.));
#280=DIRECTION('ref_axis',(0.,1.,0.));
#281=DIRECTION('center_axis',(1.,0.,0.));
#282=DIRECTION('ref_axis',(0.,0.,-1.));
#283=DIRECTION('center_axis',(1.,0.,0.));
#284=DIRECTION('ref_axis',(0.,0.,-1.));
#285=DIRECTION('',(-1.,0.,0.));
#286=DIRECTION('center_axis',(1.,0.,0.));
#287=DIRECTION('ref_axis',(0.,0.,-1.));
#288=DIRECTION('center_axis',(1.,0.,0.));
#289=DIRECTION('ref_axis',(0.,0.,-1.));
#290=DIRECTION('center_axis',(0.,-1.,-1.22464679914735E-16));
#291=DIRECTION('ref_axis',(0.,-1.22464679914735E-16,1.));
#292=DIRECTION('center_axis',(1.,0.,0.));
#293=DIRECTION('ref_axis',(0.,0.,-1.));
#294=DIRECTION('center_axis',(1.,0.,0.));
#295=DIRECTION('ref_axis',(0.,0.,-1.));
#296=DIRECTION('center_axis',(1.,0.,0.));
#297=DIRECTION('ref_axis',(0.,0.,-1.));
#298=DIRECTION('center_axis',(1.,0.,0.));
#299=DIRECTION('ref_axis',(0.,1.,0.));
#300=DIRECTION('center_axis',(1.,0.,0.));
#301=DIRECTION('ref_axis',(0.,0.,-1.));
#302=DIRECTION('center_axis',(1.,0.,0.));
#303=DIRECTION('ref_axis',(0.,0.,-1.));
#304=DIRECTION('',(-1.,0.,0.));
#305=DIRECTION('center_axis',(1.,0.,0.));
#306=DIRECTION('ref_axis',(0.,0.,-1.));
#307=DIRECTION('center_axis',(1.,0.,0.));
#308=DIRECTION('ref_axis',(0.,0.,-1.));
#309=DIRECTION('center_axis',(1.,0.,0.));
#310=DIRECTION('ref_axis',(0.,0.,-1.));
#311=DIRECTION('center_axis',(1.,0.,0.));
#312=DIRECTION('ref_axis',(0.,1.,0.));
#313=DIRECTION('center_axis',(1.,0.,0.));
#314=DIRECTION('ref_axis',(0.,0.,-1.));
#315=DIRECTION('center_axis',(1.,0.,0.));
#316=DIRECTION('ref_axis',(0.,0.,-1.));
#317=DIRECTION('',(-1.,0.,0.));
#318=DIRECTION('center_axis',(1.,0.,0.));
#319=DIRECTION('ref_axis',(0.,0.,-1.));
#320=CARTESIAN_POINT('',(0.,0.,0.));
#321=CARTESIAN_POINT('Origin',(-33.8360880601974,0.,0.));
#322=CARTESIAN_POINT('',(6.5,4.,0.));
#323=CARTESIAN_POINT('',(6.5,-4.,-4.89858719658941E-16));
#324=CARTESIAN_POINT('Origin',(6.5,0.,0.));
#325=CARTESIAN_POINT('Origin',(6.5,0.,0.));
#326=CARTESIAN_POINT('',(-6.5,-4.,-4.89858719658941E-16));
#327=CARTESIAN_POINT('',(-33.8360880601974,-4.,-4.89858719658941E-16));
#328=CARTESIAN_POINT('Origin',(-6.5,0.,0.));
#329=CARTESIAN_POINT('Origin',(-6.5,6.75,0.));
#330=CARTESIAN_POINT('',(-6.5,6.75,0.));
#331=CARTESIAN_POINT('',(-6.5,-6.75,-8.26636589424463E-16));
#332=CARTESIAN_POINT('Origin',(-6.5,0.,0.));
#333=CARTESIAN_POINT('Origin',(-6.5,0.,0.));
#334=CARTESIAN_POINT('Origin',(-6.,0.,0.));
#335=CARTESIAN_POINT('',(-5.5,6.75,0.));
#336=CARTESIAN_POINT('',(-5.5,-6.75,-8.26636589424463E-16));
#337=CARTESIAN_POINT('Origin',(-5.5,0.,0.));
#338=CARTESIAN_POINT('Origin',(-5.5,0.,0.));
#339=CARTESIAN_POINT('',(-6.,-6.75,-8.26636589424463E-16));
#340=CARTESIAN_POINT('Origin',(-5.5,13.5,0.));
#341=CARTESIAN_POINT('',(-5.5,13.5,0.));
#342=CARTESIAN_POINT('',(-5.5,-13.5,-1.65327317884893E-15));
#343=CARTESIAN_POINT('Origin',(-5.5,0.,0.));
#344=CARTESIAN_POINT('Origin',(-5.5,0.,0.));
#345=CARTESIAN_POINT('Origin',(-4.62816399709929,0.,0.));
#346=CARTESIAN_POINT('',(-3.75632799419859,13.5,0.));
#347=CARTESIAN_POINT('',(-3.75632799419859,-1.65327317884893E-15,13.5));
#348=CARTESIAN_POINT('Origin',(-3.75632799419859,0.,0.));
#349=CARTESIAN_POINT('',(-3.75632799419859,-13.5,-1.65327317884893E-15));
#350=CARTESIAN_POINT('Origin',(-3.75632799419859,0.,0.));
#351=CARTESIAN_POINT('',(-4.62816399709929,-13.5,-1.65327317884893E-15));
#352=CARTESIAN_POINT('Origin',(-3.75632799419859,0.,0.));
#353=CARTESIAN_POINT('Origin',(0.,0.,0.));
#354=CARTESIAN_POINT('',(3.75632799419859,-1.65327317884893E-15,13.5));
#355=CARTESIAN_POINT('Origin',(0.,-2.05740662256755E-15,16.8));
#356=CARTESIAN_POINT('',(3.75632799419859,13.5,0.));
#357=CARTESIAN_POINT('Origin',(3.75632799419859,0.,0.));
#358=CARTESIAN_POINT('',(3.75632799419859,-13.5,-1.65327317884893E-15));
#359=CARTESIAN_POINT('Origin',(3.75632799419859,0.,0.));
#360=CARTESIAN_POINT('Origin',(3.75632799419859,0.,0.));
#361=CARTESIAN_POINT('Origin',(4.62816399709929,0.,0.));
#362=CARTESIAN_POINT('',(5.5,13.5,0.));
#363=CARTESIAN_POINT('',(5.5,-13.5,-1.65327317884893E-15));
#364=CARTESIAN_POINT('Origin',(5.5,0.,0.));
#365=CARTESIAN_POINT('Origin',(5.5,0.,0.));
#366=CARTESIAN_POINT('',(4.62816399709929,-13.5,-1.65327317884893E-15));
#367=CARTESIAN_POINT('Origin',(5.5,6.75,0.));
#368=CARTESIAN_POINT('',(5.5,6.75,0.));
#369=CARTESIAN_POINT('',(5.5,-6.75,-8.26636589424463E-16));
#370=CARTESIAN_POINT('Origin',(5.5,0.,0.));
#371=CARTESIAN_POINT('Origin',(5.5,0.,0.));
#372=CARTESIAN_POINT('Origin',(6.,0.,0.));
#373=CARTESIAN_POINT('',(6.5,6.75,0.));
#374=CARTESIAN_POINT('',(6.5,-6.75,-8.26636589424463E-16));
#375=CARTESIAN_POINT('Origin',(6.5,0.,0.));
#376=CARTESIAN_POINT('Origin',(6.5,0.,0.));
#377=CARTESIAN_POINT('',(6.,-6.75,-8.26636589424463E-16));
#378=CARTESIAN_POINT('Origin',(6.5,0.,0.));
#379=UNCERTAINTY_MEASURE_WITH_UNIT(LENGTH_MEASURE(0.01),#383,
'DISTANCE_ACCURACY_VALUE',
'Maximum model space distance between geometric entities at asserted c
onnectivities');
#380=UNCERTAINTY_MEASURE_WITH_UNIT(LENGTH_MEASURE(0.01),#383,
'DISTANCE_ACCURACY_VALUE',
'Maximum model space distance between geometric entities at asserted c
onnectivities');
#381=(
GEOMETRIC_REPRESENTATION_CONTEXT(3)
GLOBAL_UNCERTAINTY_ASSIGNED_CONTEXT((#379))
GLOBAL_UNIT_ASSIGNED_CONTEXT((#383,#386,#385))
REPRESENTATION_CONTEXT('','3D')
);
#382=(
GEOMETRIC_REPRESENTATION_CONTEXT(3)
GLOBAL_UNCERTAINTY_ASSIGNED_CONTEXT((#380))
GLOBAL_UNIT_ASSIGNED_CONTEXT((#383,#386,#385))
REPRESENTATION_CONTEXT('','3D')
);
#383=(
LENGTH_UNIT()
NAMED_UNIT(*)
SI_UNIT(.MILLI.,.METRE.)
);
#384=(
LENGTH_UNIT()
NAMED_UNIT(*)
SI_UNIT(.CENTI.,.METRE.)
);
#385=(
NAMED_UNIT(*)
SI_UNIT($,.STERADIAN.)
SOLID_ANGLE_UNIT()
);
#386=(
NAMED_UNIT(*)
PLANE_ANGLE_UNIT()
SI_UNIT($,.RADIAN.)
);
#387=SHAPE_DEFINITION_REPRESENTATION(#388,#389);
#388=PRODUCT_DEFINITION_SHAPE('',$,#391);
#389=SHAPE_REPRESENTATION('',(#216),#381);
#390=PRODUCT_DEFINITION_CONTEXT('part definition',#395,'design');
#391=PRODUCT_DEFINITION('11226',
'11226 KriTec Laufrolle D10 Rundschliff',#392,#390);
#392=PRODUCT_DEFINITION_FORMATION('',$,#397);
#393=PRODUCT_RELATED_PRODUCT_CATEGORY(
'11226 KriTec Laufrolle D10 Rundschliff',
'11226 KriTec Laufrolle D10 Rundschliff',(#397));
#394=APPLICATION_PROTOCOL_DEFINITION('international standard',
'automotive_design',2009,#395);
#395=APPLICATION_CONTEXT(
'Core Data for Automotive Mechanical Design Process');
#396=PRODUCT_CONTEXT('part definition',#395,'mechanical');
#397=PRODUCT('11226','11226 KriTec Laufrolle D10 Rundschliff',
'KriTec Laufrolle D10 Rundschliff',(#396));
#398=PRESENTATION_STYLE_ASSIGNMENT((#399));
#399=SURFACE_STYLE_USAGE(.BOTH.,#400);
#400=SURFACE_SIDE_STYLE('',(#401));
#401=SURFACE_STYLE_FILL_AREA(#402);
#402=FILL_AREA_STYLE('',(#403));
#403=FILL_AREA_STYLE_COLOUR('',#404);
#404=COLOUR_RGB('',0.956862745098039,0.956862745098039,0.956862745098039);
ENDSEC;
END-ISO-10303-21;
