ISO-10303-21;
HEADER;
/* Generated by software containing ST-Developer
 * from STEP Tools, Inc. (www.steptools.com) 
 */

FILE_DESCRIPTION(
/* description */ (''),
/* implementation_level */ '2;1');

FILE_NAME(
/* name */ 
'S:\\Bilder_neu\\11207_KriTec_Handgriff_AL_120_gerade\\Inventordateien
\\11207_KriTec_Handgriff_AL_120_gerade.stp',
/* time_stamp */ '2014-09-29T16:06:43+02:00',
/* author */ ('kostic'),
/* organization */ (''),
/* preprocessor_version */ 'ST-DEVELOPER v15.2',
/* originating_system */ 'Autodesk Inventor 2014',
/* authorisation */ '');

FILE_SCHEMA (('AUTOMOTIVE_DESIGN { 1 0 10303 214 3 1 1 }'));
ENDSEC;

DATA;
#10=SHAPE_REPRESENTATION_RELATIONSHIP('SRR','None',#235,#11);
#11=ADVANCED_BREP_SHAPE_REPRESENTATION($,(#126),#226);
#12=STYLED_ITEM($,(#243),#126);
#13=TOROIDAL_SURFACE($,#134,14.9999999999999,4.99732580404693);
#14=TOROIDAL_SURFACE($,#142,14.9999999999999,4.99732580404693);
#15=CYLINDRICAL_SURFACE($,#131,5.);
#16=CYLINDRICAL_SURFACE($,#139,5.);
#17=CYLINDRICAL_SURFACE($,#144,5.);
#18=FACE_BOUND($,#39,.T.);
#19=FACE_BOUND($,#41,.T.);
#20=FACE_BOUND($,#44,.T.);
#21=FACE_BOUND($,#46,.T.);
#22=FACE_BOUND($,#48,.T.);
#23=FACE_BOUND($,#51,.T.);
#24=FACE_BOUND($,#53,.T.);
#25=FACE_BOUND($,#54,.T.);
#26=FACE_BOUND($,#55,.T.);
#27=FACE_BOUND($,#56,.T.);
#28=FACE_BOUND($,#57,.T.);
#29=FACE_OUTER_BOUND($,#38,.T.);
#30=FACE_OUTER_BOUND($,#40,.T.);
#31=FACE_OUTER_BOUND($,#42,.T.);
#32=FACE_OUTER_BOUND($,#43,.T.);
#33=FACE_OUTER_BOUND($,#45,.T.);
#34=FACE_OUTER_BOUND($,#47,.T.);
#35=FACE_OUTER_BOUND($,#49,.T.);
#36=FACE_OUTER_BOUND($,#50,.T.);
#37=FACE_OUTER_BOUND($,#52,.T.);
#38=EDGE_LOOP($,(#88));
#39=EDGE_LOOP($,(#89));
#40=EDGE_LOOP($,(#90));
#41=EDGE_LOOP($,(#91));
#42=EDGE_LOOP($,(#92));
#43=EDGE_LOOP($,(#93));
#44=EDGE_LOOP($,(#94));
#45=EDGE_LOOP($,(#95));
#46=EDGE_LOOP($,(#96));
#47=EDGE_LOOP($,(#97));
#48=EDGE_LOOP($,(#98));
#49=EDGE_LOOP($,(#99));
#50=EDGE_LOOP($,(#100));
#51=EDGE_LOOP($,(#101));
#52=EDGE_LOOP($,(#102));
#53=EDGE_LOOP($,(#103));
#54=EDGE_LOOP($,(#104));
#55=EDGE_LOOP($,(#105));
#56=EDGE_LOOP($,(#106));
#57=EDGE_LOOP($,(#107));
#58=CIRCLE($,#129,5.);
#59=CIRCLE($,#130,4.99732580404693);
#60=CIRCLE($,#132,5.);
#61=CIRCLE($,#135,4.99732580404693);
#62=CIRCLE($,#137,5.);
#63=CIRCLE($,#138,4.99732580404693);
#64=CIRCLE($,#140,5.);
#65=CIRCLE($,#143,4.99732580404693);
#66=CIRCLE($,#145,5.);
#67=CIRCLE($,#146,5.);
#68=VERTEX_POINT($,#195);
#69=VERTEX_POINT($,#197);
#70=VERTEX_POINT($,#200);
#71=VERTEX_POINT($,#204);
#72=VERTEX_POINT($,#207);
#73=VERTEX_POINT($,#209);
#74=VERTEX_POINT($,#212);
#75=VERTEX_POINT($,#216);
#76=VERTEX_POINT($,#219);
#77=VERTEX_POINT($,#221);
#78=EDGE_CURVE($,#68,#68,#58,.T.);
#79=EDGE_CURVE($,#69,#69,#59,.T.);
#80=EDGE_CURVE($,#70,#70,#60,.T.);
#81=EDGE_CURVE($,#71,#71,#61,.T.);
#82=EDGE_CURVE($,#72,#72,#62,.T.);
#83=EDGE_CURVE($,#73,#73,#63,.T.);
#84=EDGE_CURVE($,#74,#74,#64,.T.);
#85=EDGE_CURVE($,#75,#75,#65,.T.);
#86=EDGE_CURVE($,#76,#76,#66,.T.);
#87=EDGE_CURVE($,#77,#77,#67,.T.);
#88=ORIENTED_EDGE($,*,*,#78,.T.);
#89=ORIENTED_EDGE($,*,*,#79,.F.);
#90=ORIENTED_EDGE($,*,*,#80,.T.);
#91=ORIENTED_EDGE($,*,*,#78,.F.);
#92=ORIENTED_EDGE($,*,*,#80,.F.);
#93=ORIENTED_EDGE($,*,*,#81,.F.);
#94=ORIENTED_EDGE($,*,*,#79,.T.);
#95=ORIENTED_EDGE($,*,*,#82,.T.);
#96=ORIENTED_EDGE($,*,*,#83,.F.);
#97=ORIENTED_EDGE($,*,*,#84,.T.);
#98=ORIENTED_EDGE($,*,*,#82,.F.);
#99=ORIENTED_EDGE($,*,*,#84,.F.);
#100=ORIENTED_EDGE($,*,*,#85,.F.);
#101=ORIENTED_EDGE($,*,*,#83,.T.);
#102=ORIENTED_EDGE($,*,*,#86,.T.);
#103=ORIENTED_EDGE($,*,*,#87,.T.);
#104=ORIENTED_EDGE($,*,*,#81,.T.);
#105=ORIENTED_EDGE($,*,*,#87,.F.);
#106=ORIENTED_EDGE($,*,*,#85,.T.);
#107=ORIENTED_EDGE($,*,*,#86,.F.);
#108=PLANE($,#128);
#109=PLANE($,#133);
#110=PLANE($,#136);
#111=PLANE($,#141);
#112=PLANE($,#147);
#113=PLANE($,#148);
#114=ADVANCED_FACE($,(#29,#18),#108,.T.);
#115=ADVANCED_FACE($,(#30,#19),#15,.T.);
#116=ADVANCED_FACE($,(#31),#109,.F.);
#117=ADVANCED_FACE($,(#32,#20),#13,.T.);
#118=ADVANCED_FACE($,(#33,#21),#110,.T.);
#119=ADVANCED_FACE($,(#34,#22),#16,.T.);
#120=ADVANCED_FACE($,(#35),#111,.F.);
#121=ADVANCED_FACE($,(#36,#23),#14,.T.);
#122=ADVANCED_FACE($,(#37,#24),#17,.T.);
#123=ADVANCED_FACE($,(#25,#26),#112,.F.);
#124=ADVANCED_FACE($,(#27,#28),#113,.T.);
#125=CLOSED_SHELL($,(#114,#115,#116,#117,#118,#119,#120,#121,#122,#123,
#124));
#126=MANIFOLD_SOLID_BREP('Volumenk\X\F6rper1',#125);
#127=AXIS2_PLACEMENT_3D('placement',#193,#149,#150);
#128=AXIS2_PLACEMENT_3D($,#194,#151,#152);
#129=AXIS2_PLACEMENT_3D($,#196,#153,#154);
#130=AXIS2_PLACEMENT_3D($,#198,#155,#156);
#131=AXIS2_PLACEMENT_3D($,#199,#157,#158);
#132=AXIS2_PLACEMENT_3D($,#201,#159,#160);
#133=AXIS2_PLACEMENT_3D($,#202,#161,#162);
#134=AXIS2_PLACEMENT_3D($,#203,#163,#164);
#135=AXIS2_PLACEMENT_3D($,#205,#165,#166);
#136=AXIS2_PLACEMENT_3D($,#206,#167,#168);
#137=AXIS2_PLACEMENT_3D($,#208,#169,#170);
#138=AXIS2_PLACEMENT_3D($,#210,#171,#172);
#139=AXIS2_PLACEMENT_3D($,#211,#173,#174);
#140=AXIS2_PLACEMENT_3D($,#213,#175,#176);
#141=AXIS2_PLACEMENT_3D($,#214,#177,#178);
#142=AXIS2_PLACEMENT_3D($,#215,#179,#180);
#143=AXIS2_PLACEMENT_3D($,#217,#181,#182);
#144=AXIS2_PLACEMENT_3D($,#218,#183,#184);
#145=AXIS2_PLACEMENT_3D($,#220,#185,#186);
#146=AXIS2_PLACEMENT_3D($,#222,#187,#188);
#147=AXIS2_PLACEMENT_3D($,#223,#189,#190);
#148=AXIS2_PLACEMENT_3D($,#224,#191,#192);
#149=DIRECTION('axis',(0.,0.,1.));
#150=DIRECTION('refdir',(1.,0.,0.));
#151=DIRECTION('center_axis',(0.,0.,1.));
#152=DIRECTION('ref_axis',(1.,0.,0.));
#153=DIRECTION('center_axis',(0.,0.,1.));
#154=DIRECTION('ref_axis',(1.,0.,0.));
#155=DIRECTION('center_axis',(0.,0.,1.));
#156=DIRECTION('ref_axis',(-1.,1.22460635382238E-016,0.));
#157=DIRECTION('center_axis',(0.,0.,-1.));
#158=DIRECTION('ref_axis',(1.,0.,0.));
#159=DIRECTION('center_axis',(0.,0.,1.));
#160=DIRECTION('ref_axis',(1.,0.,0.));
#161=DIRECTION('center_axis',(0.,0.,1.));
#162=DIRECTION('ref_axis',(1.,0.,0.));
#163=DIRECTION('center_axis',(1.22460635382238E-016,1.,0.));
#164=DIRECTION('ref_axis',(0.,0.,-1.));
#165=DIRECTION('center_axis',(1.,-1.26217744835361E-030,3.55271367880049E-016));
#166=DIRECTION('ref_axis',(1.22460635382238E-016,1.,0.));
#167=DIRECTION('center_axis',(0.,0.,1.));
#168=DIRECTION('ref_axis',(1.,0.,0.));
#169=DIRECTION('center_axis',(0.,0.,1.));
#170=DIRECTION('ref_axis',(1.,0.,0.));
#171=DIRECTION('center_axis',(0.,0.,1.));
#172=DIRECTION('ref_axis',(1.,0.,0.));
#173=DIRECTION('center_axis',(0.,0.,-1.));
#174=DIRECTION('ref_axis',(1.,0.,0.));
#175=DIRECTION('center_axis',(0.,0.,1.));
#176=DIRECTION('ref_axis',(1.,0.,0.));
#177=DIRECTION('center_axis',(0.,0.,1.));
#178=DIRECTION('ref_axis',(1.,0.,0.));
#179=DIRECTION('center_axis',(0.,-1.,0.));
#180=DIRECTION('ref_axis',(0.,0.,-1.));
#181=DIRECTION('center_axis',(-1.,0.,-3.15796771448933E-016));
#182=DIRECTION('ref_axis',(0.,-1.,0.));
#183=DIRECTION('center_axis',(1.,0.,3.15796771448933E-016));
#184=DIRECTION('ref_axis',(0.,1.,0.));
#185=DIRECTION('center_axis',(-1.,0.,-2.22044604925031E-016));
#186=DIRECTION('ref_axis',(0.,1.,0.));
#187=DIRECTION('center_axis',(1.,0.,2.22044604925031E-016));
#188=DIRECTION('ref_axis',(0.,1.,0.));
#189=DIRECTION('center_axis',(1.,-1.26217744835361E-030,3.55271367880049E-016));
#190=DIRECTION('ref_axis',(0.,0.,-1.));
#191=DIRECTION('center_axis',(1.,0.,3.15796771448933E-016));
#192=DIRECTION('ref_axis',(0.,0.,-1.));
#193=CARTESIAN_POINT('',(0.,0.,0.));
#194=CARTESIAN_POINT('Origin',(6.80936788436763E-015,50.,20.));
#195=CARTESIAN_POINT('',(5.,50.,20.));
#196=CARTESIAN_POINT('Origin',(0.,50.,20.));
#197=CARTESIAN_POINT('',(-4.99732580404694,50.,20.));
#198=CARTESIAN_POINT('Origin',(0.,50.,20.));
#199=CARTESIAN_POINT('Origin',(0.,50.,20.));
#200=CARTESIAN_POINT('',(5.,50.,0.));
#201=CARTESIAN_POINT('Origin',(0.,50.,0.));
#202=CARTESIAN_POINT('Origin',(5.,50.,0.));
#203=CARTESIAN_POINT('Origin',(14.9999999999999,50.,20.));
#204=CARTESIAN_POINT('',(14.9999999999999,50.,39.9973258040469));
#205=CARTESIAN_POINT('Origin',(14.9999999999999,50.,34.9999999999999));
#206=CARTESIAN_POINT('Origin',(120.,50.,20.));
#207=CARTESIAN_POINT('',(125.,50.,20.));
#208=CARTESIAN_POINT('Origin',(120.,50.,20.));
#209=CARTESIAN_POINT('',(124.997325804047,50.,20.));
#210=CARTESIAN_POINT('Origin',(120.,50.,20.));
#211=CARTESIAN_POINT('Origin',(120.,50.,20.));
#212=CARTESIAN_POINT('',(125.,50.,0.));
#213=CARTESIAN_POINT('Origin',(120.,50.,0.));
#214=CARTESIAN_POINT('Origin',(125.,50.,0.));
#215=CARTESIAN_POINT('Origin',(105.,50.,20.));
#216=CARTESIAN_POINT('',(105.,50.,39.9973258040468));
#217=CARTESIAN_POINT('Origin',(105.,50.,34.9999999999999));
#218=CARTESIAN_POINT('Origin',(15.,50.,35.));
#219=CARTESIAN_POINT('',(105.,55.,35.));
#220=CARTESIAN_POINT('Origin',(105.,50.,35.));
#221=CARTESIAN_POINT('',(15.,55.,35.));
#222=CARTESIAN_POINT('Origin',(15.,50.,35.));
#223=CARTESIAN_POINT('Origin',(15.,50.,35.));
#224=CARTESIAN_POINT('Origin',(105.,55.,35.));
#225=UNCERTAINTY_MEASURE_WITH_UNIT(LENGTH_MEASURE(0.01),#227,
'DISTANCE_ACCURACY_VALUE',
'Maximum model space distance between geometric entities at asserted c
onnectivities');
#226=(
GEOMETRIC_REPRESENTATION_CONTEXT(3)
GLOBAL_UNCERTAINTY_ASSIGNED_CONTEXT((#225))
GLOBAL_UNIT_ASSIGNED_CONTEXT((#227,#230,#228))
REPRESENTATION_CONTEXT('','3D')
);
#227=(
LENGTH_UNIT()
NAMED_UNIT(*)
SI_UNIT(.MILLI.,.METRE.)
);
#228=(
NAMED_UNIT(*)
SI_UNIT($,.STERADIAN.)
SOLID_ANGLE_UNIT()
);
#229=DIMENSIONAL_EXPONENTS(0.,0.,0.,0.,0.,0.,0.);
#230=(
CONVERSION_BASED_UNIT('degree',#232)
NAMED_UNIT(#229)
PLANE_ANGLE_UNIT()
);
#231=(
NAMED_UNIT(*)
PLANE_ANGLE_UNIT()
SI_UNIT($,.RADIAN.)
);
#232=PLANE_ANGLE_MEASURE_WITH_UNIT(PLANE_ANGLE_MEASURE(0.01745329252),#231);
#233=SHAPE_DEFINITION_REPRESENTATION(#234,#235);
#234=PRODUCT_DEFINITION_SHAPE('',$,#237);
#235=SHAPE_REPRESENTATION('',(#127),#226);
#236=PRODUCT_DEFINITION_CONTEXT('3D Mechanical Parts',#240,'design');
#237=PRODUCT_DEFINITION('11207_KriTec_Handgriff_AL_120_gerade',
'11207_KriTec_Handgriff_AL_120_gerade',#238,#236);
#238=PRODUCT_DEFINITION_FORMATION('',$,#242);
#239=APPLICATION_PROTOCOL_DEFINITION('international standard',
'automotive_design',2009,#240);
#240=APPLICATION_CONTEXT(
'Core Data for Automotive Mechanical Design Process');
#241=PRODUCT_CONTEXT('3D Mechanical Parts',#240,'mechanical');
#242=PRODUCT('11207_KriTec_Handgriff_AL_120_gerade',
'11207_KriTec_Handgriff_AL_120_gerade',$,(#241));
#243=PRESENTATION_STYLE_ASSIGNMENT((#244));
#244=SURFACE_STYLE_USAGE(.BOTH.,#245);
#245=SURFACE_SIDE_STYLE($,(#246));
#246=SURFACE_STYLE_FILL_AREA(#247);
#247=FILL_AREA_STYLE($,(#248));
#248=FILL_AREA_STYLE_COLOUR($,#249);
#249=COLOUR_RGB('',0.0196078431372549,0.0196078431372549,0.0196078431372549);
ENDSEC;
END-ISO-10303-21;
