ISO-10303-21;
HEADER;
/* Generated by software containing ST-Developer
 * from STEP Tools, Inc. (www.steptools.com) 
 */

FILE_DESCRIPTION(
/* description */ (''),
/* implementation_level */ '2;1');

FILE_NAME(
/* name */ 
'S:\\Bilder_neu\\11159_KriTec_Laufrolle_D14\\Inventordateien\\11159_Kr
iTec_Laufrolle_D14.stp',
/* time_stamp */ '2014-05-08T12:15:35+02:00',
/* author */ ('kostic'),
/* organization */ (''),
/* preprocessor_version */ 'ST-DEVELOPER v15.2',
/* originating_system */ 'Autodesk Inventor 2014',
/* authorisation */ '');

FILE_SCHEMA (('AUTOMOTIVE_DESIGN { 1 0 10303 214 3 1 1 }'));
ENDSEC;

DATA;
#10=SHAPE_REPRESENTATION_RELATIONSHIP('SRR','None',#471,#11);
#11=ADVANCED_BREP_SHAPE_REPRESENTATION($,(#258),#462);
#12=STYLED_ITEM($,(#479),#255);
#13=STYLED_ITEM($,(#479),#256);
#14=STYLED_ITEM($,(#479),#258);
#15=CYLINDRICAL_SURFACE($,#265,19.95);
#16=CYLINDRICAL_SURFACE($,#269,14.);
#17=CYLINDRICAL_SURFACE($,#274,8.65);
#18=CYLINDRICAL_SURFACE($,#281,8.65);
#19=CYLINDRICAL_SURFACE($,#290,14.);
#20=CYLINDRICAL_SURFACE($,#294,19.95);
#21=CYLINDRICAL_SURFACE($,#296,6.);
#22=CYLINDRICAL_SURFACE($,#297,16.65);
#23=PLANE($,#263);
#24=PLANE($,#276);
#25=PLANE($,#283);
#26=PLANE($,#288);
#27=PLANE($,#302);
#28=PLANE($,#303);
#29=FACE_BOUND($,#74,.T.);
#30=FACE_BOUND($,#75,.T.);
#31=FACE_BOUND($,#76,.T.);
#32=FACE_BOUND($,#78,.T.);
#33=FACE_BOUND($,#80,.T.);
#34=FACE_BOUND($,#82,.T.);
#35=FACE_BOUND($,#84,.T.);
#36=FACE_BOUND($,#86,.T.);
#37=FACE_BOUND($,#87,.T.);
#38=FACE_BOUND($,#88,.T.);
#39=FACE_BOUND($,#90,.T.);
#40=FACE_BOUND($,#92,.T.);
#41=FACE_BOUND($,#93,.T.);
#42=FACE_BOUND($,#94,.T.);
#43=FACE_BOUND($,#96,.T.);
#44=FACE_BOUND($,#98,.T.);
#45=FACE_BOUND($,#100,.T.);
#46=FACE_BOUND($,#102,.T.);
#47=FACE_BOUND($,#104,.T.);
#48=FACE_BOUND($,#106,.T.);
#49=FACE_BOUND($,#108,.T.);
#50=FACE_BOUND($,#110,.T.);
#51=FACE_BOUND($,#112,.T.);
#52=FACE_BOUND($,#113,.T.);
#53=FACE_BOUND($,#114,.T.);
#54=FACE_BOUND($,#115,.T.);
#55=FACE_BOUND($,#116,.T.);
#56=FACE_OUTER_BOUND($,#73,.T.);
#57=FACE_OUTER_BOUND($,#77,.T.);
#58=FACE_OUTER_BOUND($,#79,.T.);
#59=FACE_OUTER_BOUND($,#81,.T.);
#60=FACE_OUTER_BOUND($,#83,.T.);
#61=FACE_OUTER_BOUND($,#85,.T.);
#62=FACE_OUTER_BOUND($,#89,.T.);
#63=FACE_OUTER_BOUND($,#91,.T.);
#64=FACE_OUTER_BOUND($,#95,.T.);
#65=FACE_OUTER_BOUND($,#97,.T.);
#66=FACE_OUTER_BOUND($,#99,.T.);
#67=FACE_OUTER_BOUND($,#101,.T.);
#68=FACE_OUTER_BOUND($,#103,.T.);
#69=FACE_OUTER_BOUND($,#105,.T.);
#70=FACE_OUTER_BOUND($,#107,.T.);
#71=FACE_OUTER_BOUND($,#109,.T.);
#72=FACE_OUTER_BOUND($,#111,.T.);
#73=EDGE_LOOP($,(#183));
#74=EDGE_LOOP($,(#184));
#75=EDGE_LOOP($,(#185));
#76=EDGE_LOOP($,(#186));
#77=EDGE_LOOP($,(#187));
#78=EDGE_LOOP($,(#188));
#79=EDGE_LOOP($,(#189));
#80=EDGE_LOOP($,(#190));
#81=EDGE_LOOP($,(#191));
#82=EDGE_LOOP($,(#192));
#83=EDGE_LOOP($,(#193));
#84=EDGE_LOOP($,(#194));
#85=EDGE_LOOP($,(#195));
#86=EDGE_LOOP($,(#196));
#87=EDGE_LOOP($,(#197));
#88=EDGE_LOOP($,(#198));
#89=EDGE_LOOP($,(#199));
#90=EDGE_LOOP($,(#200));
#91=EDGE_LOOP($,(#201));
#92=EDGE_LOOP($,(#202));
#93=EDGE_LOOP($,(#203));
#94=EDGE_LOOP($,(#204));
#95=EDGE_LOOP($,(#205));
#96=EDGE_LOOP($,(#206));
#97=EDGE_LOOP($,(#207));
#98=EDGE_LOOP($,(#208));
#99=EDGE_LOOP($,(#209));
#100=EDGE_LOOP($,(#210));
#101=EDGE_LOOP($,(#211));
#102=EDGE_LOOP($,(#212));
#103=EDGE_LOOP($,(#213));
#104=EDGE_LOOP($,(#214));
#105=EDGE_LOOP($,(#215));
#106=EDGE_LOOP($,(#216));
#107=EDGE_LOOP($,(#217));
#108=EDGE_LOOP($,(#218));
#109=EDGE_LOOP($,(#219));
#110=EDGE_LOOP($,(#220));
#111=EDGE_LOOP($,(#221));
#112=EDGE_LOOP($,(#222));
#113=EDGE_LOOP($,(#223));
#114=EDGE_LOOP($,(#224));
#115=EDGE_LOOP($,(#225));
#116=EDGE_LOOP($,(#226));
#117=CIRCLE($,#261,19.95);
#118=CIRCLE($,#262,19.45);
#119=CIRCLE($,#264,14.5);
#120=CIRCLE($,#266,19.95);
#121=CIRCLE($,#268,14.);
#122=CIRCLE($,#270,14.);
#123=CIRCLE($,#272,8.15);
#124=CIRCLE($,#273,8.65);
#125=CIRCLE($,#275,8.65);
#126=CIRCLE($,#277,6.);
#127=CIRCLE($,#279,8.15);
#128=CIRCLE($,#280,8.65);
#129=CIRCLE($,#282,8.65);
#130=CIRCLE($,#284,6.);
#131=CIRCLE($,#286,14.);
#132=CIRCLE($,#287,14.5);
#133=CIRCLE($,#289,19.45);
#134=CIRCLE($,#291,14.);
#135=CIRCLE($,#293,19.95);
#136=CIRCLE($,#295,19.95);
#137=CIRCLE($,#298,16.65);
#138=CIRCLE($,#299,16.65);
#139=VERTEX_POINT($,#396);
#140=VERTEX_POINT($,#398);
#141=VERTEX_POINT($,#401);
#142=VERTEX_POINT($,#404);
#143=VERTEX_POINT($,#407);
#144=VERTEX_POINT($,#410);
#145=VERTEX_POINT($,#413);
#146=VERTEX_POINT($,#415);
#147=VERTEX_POINT($,#418);
#148=VERTEX_POINT($,#421);
#149=VERTEX_POINT($,#424);
#150=VERTEX_POINT($,#426);
#151=VERTEX_POINT($,#429);
#152=VERTEX_POINT($,#432);
#153=VERTEX_POINT($,#435);
#154=VERTEX_POINT($,#437);
#155=VERTEX_POINT($,#440);
#156=VERTEX_POINT($,#443);
#157=VERTEX_POINT($,#446);
#158=VERTEX_POINT($,#449);
#159=VERTEX_POINT($,#453);
#160=VERTEX_POINT($,#455);
#161=EDGE_CURVE($,#139,#139,#117,.T.);
#162=EDGE_CURVE($,#140,#140,#118,.T.);
#163=EDGE_CURVE($,#141,#141,#119,.T.);
#164=EDGE_CURVE($,#142,#142,#120,.T.);
#165=EDGE_CURVE($,#143,#143,#121,.T.);
#166=EDGE_CURVE($,#144,#144,#122,.T.);
#167=EDGE_CURVE($,#145,#145,#123,.T.);
#168=EDGE_CURVE($,#146,#146,#124,.T.);
#169=EDGE_CURVE($,#147,#147,#125,.T.);
#170=EDGE_CURVE($,#148,#148,#126,.T.);
#171=EDGE_CURVE($,#149,#149,#127,.T.);
#172=EDGE_CURVE($,#150,#150,#128,.T.);
#173=EDGE_CURVE($,#151,#151,#129,.T.);
#174=EDGE_CURVE($,#152,#152,#130,.T.);
#175=EDGE_CURVE($,#153,#153,#131,.T.);
#176=EDGE_CURVE($,#154,#154,#132,.T.);
#177=EDGE_CURVE($,#155,#155,#133,.T.);
#178=EDGE_CURVE($,#156,#156,#134,.T.);
#179=EDGE_CURVE($,#157,#157,#135,.T.);
#180=EDGE_CURVE($,#158,#158,#136,.T.);
#181=EDGE_CURVE($,#159,#159,#137,.T.);
#182=EDGE_CURVE($,#160,#160,#138,.T.);
#183=ORIENTED_EDGE($,*,*,#161,.T.);
#184=ORIENTED_EDGE($,*,*,#162,.T.);
#185=ORIENTED_EDGE($,*,*,#163,.F.);
#186=ORIENTED_EDGE($,*,*,#162,.F.);
#187=ORIENTED_EDGE($,*,*,#164,.T.);
#188=ORIENTED_EDGE($,*,*,#161,.F.);
#189=ORIENTED_EDGE($,*,*,#165,.T.);
#190=ORIENTED_EDGE($,*,*,#163,.T.);
#191=ORIENTED_EDGE($,*,*,#166,.F.);
#192=ORIENTED_EDGE($,*,*,#165,.F.);
#193=ORIENTED_EDGE($,*,*,#167,.T.);
#194=ORIENTED_EDGE($,*,*,#168,.T.);
#195=ORIENTED_EDGE($,*,*,#169,.T.);
#196=ORIENTED_EDGE($,*,*,#168,.F.);
#197=ORIENTED_EDGE($,*,*,#170,.T.);
#198=ORIENTED_EDGE($,*,*,#167,.F.);
#199=ORIENTED_EDGE($,*,*,#171,.T.);
#200=ORIENTED_EDGE($,*,*,#172,.T.);
#201=ORIENTED_EDGE($,*,*,#173,.T.);
#202=ORIENTED_EDGE($,*,*,#172,.F.);
#203=ORIENTED_EDGE($,*,*,#174,.T.);
#204=ORIENTED_EDGE($,*,*,#171,.F.);
#205=ORIENTED_EDGE($,*,*,#175,.T.);
#206=ORIENTED_EDGE($,*,*,#176,.T.);
#207=ORIENTED_EDGE($,*,*,#177,.F.);
#208=ORIENTED_EDGE($,*,*,#176,.F.);
#209=ORIENTED_EDGE($,*,*,#178,.F.);
#210=ORIENTED_EDGE($,*,*,#175,.F.);
#211=ORIENTED_EDGE($,*,*,#177,.T.);
#212=ORIENTED_EDGE($,*,*,#179,.T.);
#213=ORIENTED_EDGE($,*,*,#180,.T.);
#214=ORIENTED_EDGE($,*,*,#179,.F.);
#215=ORIENTED_EDGE($,*,*,#174,.F.);
#216=ORIENTED_EDGE($,*,*,#170,.F.);
#217=ORIENTED_EDGE($,*,*,#181,.T.);
#218=ORIENTED_EDGE($,*,*,#182,.F.);
#219=ORIENTED_EDGE($,*,*,#164,.F.);
#220=ORIENTED_EDGE($,*,*,#181,.F.);
#221=ORIENTED_EDGE($,*,*,#182,.T.);
#222=ORIENTED_EDGE($,*,*,#180,.F.);
#223=ORIENTED_EDGE($,*,*,#169,.F.);
#224=ORIENTED_EDGE($,*,*,#178,.T.);
#225=ORIENTED_EDGE($,*,*,#173,.F.);
#226=ORIENTED_EDGE($,*,*,#166,.T.);
#227=CONICAL_SURFACE($,#260,19.7,44.9999999999999);
#228=CONICAL_SURFACE($,#267,14.25,45.);
#229=CONICAL_SURFACE($,#271,8.4,44.9999999999999);
#230=CONICAL_SURFACE($,#278,8.4,45.);
#231=CONICAL_SURFACE($,#285,14.25,44.9999999999999);
#232=CONICAL_SURFACE($,#292,19.7,44.9999999999999);
#233=CONICAL_SURFACE($,#300,18.3,39.5226312711711);
#234=CONICAL_SURFACE($,#301,18.3,39.5226312711711);
#235=ADVANCED_FACE($,(#56,#29),#227,.T.);
#236=ADVANCED_FACE($,(#30,#31),#23,.T.);
#237=ADVANCED_FACE($,(#57,#32),#15,.T.);
#238=ADVANCED_FACE($,(#58,#33),#228,.F.);
#239=ADVANCED_FACE($,(#59,#34),#16,.F.);
#240=ADVANCED_FACE($,(#60,#35),#229,.T.);
#241=ADVANCED_FACE($,(#61,#36),#17,.T.);
#242=ADVANCED_FACE($,(#37,#38),#24,.F.);
#243=ADVANCED_FACE($,(#62,#39),#230,.T.);
#244=ADVANCED_FACE($,(#63,#40),#18,.T.);
#245=ADVANCED_FACE($,(#41,#42),#25,.F.);
#246=ADVANCED_FACE($,(#64,#43),#231,.F.);
#247=ADVANCED_FACE($,(#65,#44),#26,.F.);
#248=ADVANCED_FACE($,(#66,#45),#19,.F.);
#249=ADVANCED_FACE($,(#67,#46),#232,.T.);
#250=ADVANCED_FACE($,(#68,#47),#20,.T.);
#251=ADVANCED_FACE($,(#69,#48),#21,.F.);
#252=ADVANCED_FACE($,(#70,#49),#22,.T.);
#253=ADVANCED_FACE($,(#71,#50),#233,.T.);
#254=ADVANCED_FACE($,(#72,#51),#234,.T.);
#255=ADVANCED_FACE($,(#52,#53),#27,.F.);
#256=ADVANCED_FACE($,(#54,#55),#28,.F.);
#257=CLOSED_SHELL($,(#235,#236,#237,#238,#239,#240,#241,#242,#243,#244,
#245,#246,#247,#248,#249,#250,#251,#252,#253,#254,#255,#256));
#258=MANIFOLD_SOLID_BREP('Volumenk\X\F6rper1',#257);
#259=AXIS2_PLACEMENT_3D('placement',#394,#304,#305);
#260=AXIS2_PLACEMENT_3D($,#395,#306,#307);
#261=AXIS2_PLACEMENT_3D($,#397,#308,#309);
#262=AXIS2_PLACEMENT_3D($,#399,#310,#311);
#263=AXIS2_PLACEMENT_3D($,#400,#312,#313);
#264=AXIS2_PLACEMENT_3D($,#402,#314,#315);
#265=AXIS2_PLACEMENT_3D($,#403,#316,#317);
#266=AXIS2_PLACEMENT_3D($,#405,#318,#319);
#267=AXIS2_PLACEMENT_3D($,#406,#320,#321);
#268=AXIS2_PLACEMENT_3D($,#408,#322,#323);
#269=AXIS2_PLACEMENT_3D($,#409,#324,#325);
#270=AXIS2_PLACEMENT_3D($,#411,#326,#327);
#271=AXIS2_PLACEMENT_3D($,#412,#328,#329);
#272=AXIS2_PLACEMENT_3D($,#414,#330,#331);
#273=AXIS2_PLACEMENT_3D($,#416,#332,#333);
#274=AXIS2_PLACEMENT_3D($,#417,#334,#335);
#275=AXIS2_PLACEMENT_3D($,#419,#336,#337);
#276=AXIS2_PLACEMENT_3D($,#420,#338,#339);
#277=AXIS2_PLACEMENT_3D($,#422,#340,#341);
#278=AXIS2_PLACEMENT_3D($,#423,#342,#343);
#279=AXIS2_PLACEMENT_3D($,#425,#344,#345);
#280=AXIS2_PLACEMENT_3D($,#427,#346,#347);
#281=AXIS2_PLACEMENT_3D($,#428,#348,#349);
#282=AXIS2_PLACEMENT_3D($,#430,#350,#351);
#283=AXIS2_PLACEMENT_3D($,#431,#352,#353);
#284=AXIS2_PLACEMENT_3D($,#433,#354,#355);
#285=AXIS2_PLACEMENT_3D($,#434,#356,#357);
#286=AXIS2_PLACEMENT_3D($,#436,#358,#359);
#287=AXIS2_PLACEMENT_3D($,#438,#360,#361);
#288=AXIS2_PLACEMENT_3D($,#439,#362,#363);
#289=AXIS2_PLACEMENT_3D($,#441,#364,#365);
#290=AXIS2_PLACEMENT_3D($,#442,#366,#367);
#291=AXIS2_PLACEMENT_3D($,#444,#368,#369);
#292=AXIS2_PLACEMENT_3D($,#445,#370,#371);
#293=AXIS2_PLACEMENT_3D($,#447,#372,#373);
#294=AXIS2_PLACEMENT_3D($,#448,#374,#375);
#295=AXIS2_PLACEMENT_3D($,#450,#376,#377);
#296=AXIS2_PLACEMENT_3D($,#451,#378,#379);
#297=AXIS2_PLACEMENT_3D($,#452,#380,#381);
#298=AXIS2_PLACEMENT_3D($,#454,#382,#383);
#299=AXIS2_PLACEMENT_3D($,#456,#384,#385);
#300=AXIS2_PLACEMENT_3D($,#457,#386,#387);
#301=AXIS2_PLACEMENT_3D($,#458,#388,#389);
#302=AXIS2_PLACEMENT_3D($,#459,#390,#391);
#303=AXIS2_PLACEMENT_3D($,#460,#392,#393);
#304=DIRECTION('axis',(0.,0.,1.));
#305=DIRECTION('refdir',(1.,0.,0.));
#306=DIRECTION('center_axis',(0.,0.,1.));
#307=DIRECTION('ref_axis',(-1.,0.,0.));
#308=DIRECTION('center_axis',(0.,0.,-1.));
#309=DIRECTION('ref_axis',(-1.,0.,0.));
#310=DIRECTION('center_axis',(0.,0.,1.));
#311=DIRECTION('ref_axis',(-1.,0.,0.));
#312=DIRECTION('center_axis',(0.,0.,-1.));
#313=DIRECTION('ref_axis',(-1.,0.,0.));
#314=DIRECTION('center_axis',(0.,0.,-1.));
#315=DIRECTION('ref_axis',(1.,0.,0.));
#316=DIRECTION('center_axis',(0.,0.,1.));
#317=DIRECTION('ref_axis',(-1.,0.,0.));
#318=DIRECTION('center_axis',(0.,0.,-1.));
#319=DIRECTION('ref_axis',(-1.,0.,0.));
#320=DIRECTION('center_axis',(0.,0.,-1.));
#321=DIRECTION('ref_axis',(1.,0.,0.));
#322=DIRECTION('center_axis',(0.,0.,1.));
#323=DIRECTION('ref_axis',(1.,0.,0.));
#324=DIRECTION('center_axis',(0.,0.,1.));
#325=DIRECTION('ref_axis',(1.,0.,0.));
#326=DIRECTION('center_axis',(0.,0.,-1.));
#327=DIRECTION('ref_axis',(1.,0.,0.));
#328=DIRECTION('center_axis',(0.,0.,-1.));
#329=DIRECTION('ref_axis',(-1.,0.,0.));
#330=DIRECTION('center_axis',(0.,0.,-1.));
#331=DIRECTION('ref_axis',(-1.,0.,0.));
#332=DIRECTION('center_axis',(0.,0.,1.));
#333=DIRECTION('ref_axis',(-1.,0.,0.));
#334=DIRECTION('center_axis',(0.,0.,1.));
#335=DIRECTION('ref_axis',(-1.,0.,0.));
#336=DIRECTION('center_axis',(0.,0.,1.));
#337=DIRECTION('ref_axis',(-1.,0.,0.));
#338=DIRECTION('center_axis',(0.,0.,-1.));
#339=DIRECTION('ref_axis',(-1.,0.,0.));
#340=DIRECTION('center_axis',(0.,0.,-1.));
#341=DIRECTION('ref_axis',(1.,0.,0.));
#342=DIRECTION('center_axis',(0.,0.,1.));
#343=DIRECTION('ref_axis',(1.,0.,0.));
#344=DIRECTION('center_axis',(0.,0.,1.));
#345=DIRECTION('ref_axis',(1.,0.,0.));
#346=DIRECTION('center_axis',(0.,0.,-1.));
#347=DIRECTION('ref_axis',(1.,0.,0.));
#348=DIRECTION('center_axis',(0.,0.,-1.));
#349=DIRECTION('ref_axis',(1.,0.,0.));
#350=DIRECTION('center_axis',(0.,0.,-1.));
#351=DIRECTION('ref_axis',(1.,0.,0.));
#352=DIRECTION('center_axis',(0.,0.,1.));
#353=DIRECTION('ref_axis',(1.,0.,0.));
#354=DIRECTION('center_axis',(0.,0.,1.));
#355=DIRECTION('ref_axis',(1.,0.,0.));
#356=DIRECTION('center_axis',(0.,0.,1.));
#357=DIRECTION('ref_axis',(-1.,0.,0.));
#358=DIRECTION('center_axis',(0.,0.,-1.));
#359=DIRECTION('ref_axis',(-1.,0.,0.));
#360=DIRECTION('center_axis',(0.,0.,1.));
#361=DIRECTION('ref_axis',(-1.,0.,0.));
#362=DIRECTION('center_axis',(0.,0.,-1.));
#363=DIRECTION('ref_axis',(-1.,0.,0.));
#364=DIRECTION('center_axis',(0.,0.,-1.));
#365=DIRECTION('ref_axis',(-1.,0.,0.));
#366=DIRECTION('center_axis',(0.,0.,-1.));
#367=DIRECTION('ref_axis',(-1.,0.,0.));
#368=DIRECTION('center_axis',(0.,0.,1.));
#369=DIRECTION('ref_axis',(-1.,0.,0.));
#370=DIRECTION('center_axis',(0.,0.,-1.));
#371=DIRECTION('ref_axis',(-1.,0.,0.));
#372=DIRECTION('center_axis',(0.,0.,1.));
#373=DIRECTION('ref_axis',(-1.,0.,0.));
#374=DIRECTION('center_axis',(0.,0.,1.));
#375=DIRECTION('ref_axis',(-1.,0.,0.));
#376=DIRECTION('center_axis',(0.,0.,1.));
#377=DIRECTION('ref_axis',(-1.,0.,0.));
#378=DIRECTION('center_axis',(0.,0.,1.));
#379=DIRECTION('ref_axis',(1.,0.,0.));
#380=DIRECTION('center_axis',(0.,0.,1.));
#381=DIRECTION('ref_axis',(-1.,0.,0.));
#382=DIRECTION('center_axis',(0.,0.,1.));
#383=DIRECTION('ref_axis',(-1.,0.,0.));
#384=DIRECTION('center_axis',(0.,0.,1.));
#385=DIRECTION('ref_axis',(-1.,0.,0.));
#386=DIRECTION('center_axis',(0.,0.,-1.));
#387=DIRECTION('ref_axis',(-1.,0.,0.));
#388=DIRECTION('center_axis',(0.,0.,1.));
#389=DIRECTION('ref_axis',(-1.,0.,0.));
#390=DIRECTION('center_axis',(0.,0.,-1.));
#391=DIRECTION('ref_axis',(-1.,0.,0.));
#392=DIRECTION('center_axis',(0.,0.,1.));
#393=DIRECTION('ref_axis',(1.,0.,0.));
#394=CARTESIAN_POINT('',(0.,0.,0.));
#395=CARTESIAN_POINT('Origin',(-10.3580561116376,12.0843989270134,0.25));
#396=CARTESIAN_POINT('',(9.59194388836241,12.0843989270134,0.5));
#397=CARTESIAN_POINT('Origin',(-10.3580561116376,12.0843989270134,0.5));
#398=CARTESIAN_POINT('',(9.09194388836241,12.0843989270134,0.));
#399=CARTESIAN_POINT('Origin',(-10.3580561116376,12.0843989270134,0.));
#400=CARTESIAN_POINT('Origin',(-10.3580561116376,12.0843989270134,0.));
#401=CARTESIAN_POINT('',(-24.8580561116376,12.0843989270134,0.));
#402=CARTESIAN_POINT('Origin',(-10.3580561116376,12.0843989270134,0.));
#403=CARTESIAN_POINT('Origin',(-10.3580561116376,12.0843989270134,0.));
#404=CARTESIAN_POINT('',(-30.3080561116376,12.0843989270134,3.));
#405=CARTESIAN_POINT('Origin',(-10.3580561116376,12.0843989270134,3.));
#406=CARTESIAN_POINT('Origin',(-10.3580561116376,12.0843989270134,0.25));
#407=CARTESIAN_POINT('',(-24.3580561116376,12.0843989270134,0.5));
#408=CARTESIAN_POINT('Origin',(-10.3580561116376,12.0843989270134,0.5));
#409=CARTESIAN_POINT('Origin',(-10.3580561116376,12.0843989270134,0.));
#410=CARTESIAN_POINT('',(-24.3580561116376,12.0843989270134,2.));
#411=CARTESIAN_POINT('Origin',(-10.3580561116376,12.0843989270134,2.));
#412=CARTESIAN_POINT('Origin',(-10.3580561116376,12.0843989270134,18.75));
#413=CARTESIAN_POINT('',(-2.20805611163759,12.0843989270134,19.));
#414=CARTESIAN_POINT('Origin',(-10.3580561116376,12.0843989270134,19.));
#415=CARTESIAN_POINT('',(-1.70805611163759,12.0843989270134,18.5));
#416=CARTESIAN_POINT('Origin',(-10.3580561116376,12.0843989270134,18.5));
#417=CARTESIAN_POINT('Origin',(-10.3580561116376,12.0843989270134,18.));
#418=CARTESIAN_POINT('',(-1.70805611163759,12.0843989270134,16.));
#419=CARTESIAN_POINT('Origin',(-10.3580561116376,12.0843989270134,16.));
#420=CARTESIAN_POINT('Origin',(-10.3580561116376,12.0843989270134,19.));
#421=CARTESIAN_POINT('',(-4.35805611163759,12.0843989270134,19.));
#422=CARTESIAN_POINT('Origin',(-10.3580561116376,12.0843989270134,19.));
#423=CARTESIAN_POINT('Origin',(-10.3580561116376,12.0843989270134,-0.75));
#424=CARTESIAN_POINT('',(-18.5080561116376,12.0843989270134,-1.));
#425=CARTESIAN_POINT('Origin',(-10.3580561116376,12.0843989270134,-1.));
#426=CARTESIAN_POINT('',(-19.0080561116376,12.0843989270134,-0.5));
#427=CARTESIAN_POINT('Origin',(-10.3580561116376,12.0843989270134,-0.5));
#428=CARTESIAN_POINT('Origin',(-10.3580561116376,12.0843989270134,0.));
#429=CARTESIAN_POINT('',(-19.0080561116376,12.0843989270134,2.));
#430=CARTESIAN_POINT('Origin',(-10.3580561116376,12.0843989270134,2.));
#431=CARTESIAN_POINT('Origin',(-10.3580561116376,12.0843989270134,-1.));
#432=CARTESIAN_POINT('',(-16.3580561116376,12.0843989270134,-1.));
#433=CARTESIAN_POINT('Origin',(-10.3580561116376,12.0843989270134,-1.));
#434=CARTESIAN_POINT('Origin',(-10.3580561116376,12.0843989270134,17.75));
#435=CARTESIAN_POINT('',(3.64194388836241,12.0843989270134,17.5));
#436=CARTESIAN_POINT('Origin',(-10.3580561116376,12.0843989270134,17.5));
#437=CARTESIAN_POINT('',(4.14194388836241,12.0843989270134,18.));
#438=CARTESIAN_POINT('Origin',(-10.3580561116376,12.0843989270134,18.));
#439=CARTESIAN_POINT('Origin',(-10.3580561116376,12.0843989270134,18.));
#440=CARTESIAN_POINT('',(9.09194388836241,12.0843989270134,18.));
#441=CARTESIAN_POINT('Origin',(-10.3580561116376,12.0843989270134,18.));
#442=CARTESIAN_POINT('Origin',(-10.3580561116376,12.0843989270134,18.));
#443=CARTESIAN_POINT('',(3.64194388836241,12.0843989270134,16.));
#444=CARTESIAN_POINT('Origin',(-10.3580561116376,12.0843989270134,16.));
#445=CARTESIAN_POINT('Origin',(-10.3580561116376,12.0843989270134,17.75));
#446=CARTESIAN_POINT('',(9.59194388836241,12.0843989270134,17.5));
#447=CARTESIAN_POINT('Origin',(-10.3580561116376,12.0843989270134,17.5));
#448=CARTESIAN_POINT('Origin',(-10.3580561116376,12.0843989270134,0.));
#449=CARTESIAN_POINT('',(-30.3080561116376,12.0843989270134,15.));
#450=CARTESIAN_POINT('Origin',(-10.3580561116376,12.0843989270134,15.));
#451=CARTESIAN_POINT('Origin',(-10.3580561116376,12.0843989270134,-40.8666852264262));
#452=CARTESIAN_POINT('Origin',(-10.3580561116376,12.0843989270134,8.));
#453=CARTESIAN_POINT('',(-27.0080561116376,12.0843989270134,7.));
#454=CARTESIAN_POINT('Origin',(-10.3580561116376,12.0843989270134,7.));
#455=CARTESIAN_POINT('',(-27.0080561116376,12.0843989270134,11.));
#456=CARTESIAN_POINT('Origin',(-10.3580561116376,12.0843989270134,11.));
#457=CARTESIAN_POINT('Origin',(-10.3580561116376,12.0843989270134,5.));
#458=CARTESIAN_POINT('Origin',(-10.3580561116376,12.0843989270134,13.));
#459=CARTESIAN_POINT('Origin',(-10.3580561116376,12.0843989270134,16.));
#460=CARTESIAN_POINT('Origin',(-10.3580561116376,12.0843989270134,2.));
#461=UNCERTAINTY_MEASURE_WITH_UNIT(LENGTH_MEASURE(0.01),#463,
'DISTANCE_ACCURACY_VALUE',
'Maximum model space distance between geometric entities at asserted c
onnectivities');
#462=(
GEOMETRIC_REPRESENTATION_CONTEXT(3)
GLOBAL_UNCERTAINTY_ASSIGNED_CONTEXT((#461))
GLOBAL_UNIT_ASSIGNED_CONTEXT((#463,#466,#464))
REPRESENTATION_CONTEXT('','3D')
);
#463=(
LENGTH_UNIT()
NAMED_UNIT(*)
SI_UNIT(.MILLI.,.METRE.)
);
#464=(
NAMED_UNIT(*)
SI_UNIT($,.STERADIAN.)
SOLID_ANGLE_UNIT()
);
#465=DIMENSIONAL_EXPONENTS(0.,0.,0.,0.,0.,0.,0.);
#466=(
CONVERSION_BASED_UNIT('degree',#468)
NAMED_UNIT(#465)
PLANE_ANGLE_UNIT()
);
#467=(
NAMED_UNIT(*)
PLANE_ANGLE_UNIT()
SI_UNIT($,.RADIAN.)
);
#468=PLANE_ANGLE_MEASURE_WITH_UNIT(PLANE_ANGLE_MEASURE(0.01745329252),#467);
#469=SHAPE_DEFINITION_REPRESENTATION(#470,#471);
#470=PRODUCT_DEFINITION_SHAPE('',$,#473);
#471=SHAPE_REPRESENTATION('',(#259),#462);
#472=PRODUCT_DEFINITION_CONTEXT('3D Mechanical Parts',#476,'design');
#473=PRODUCT_DEFINITION('11159_KriTec_Laufrolle_D14',
'11159_KriTec_Laufrolle_D14',#474,#472);
#474=PRODUCT_DEFINITION_FORMATION('',$,#478);
#475=APPLICATION_PROTOCOL_DEFINITION('international standard',
'automotive_design',2009,#476);
#476=APPLICATION_CONTEXT(
'Core Data for Automotive Mechanical Design Process');
#477=PRODUCT_CONTEXT('3D Mechanical Parts',#476,'mechanical');
#478=PRODUCT('11159_KriTec_Laufrolle_D14','11159_KriTec_Laufrolle_D14',
$,(#477));
#479=PRESENTATION_STYLE_ASSIGNMENT((#480));
#480=SURFACE_STYLE_USAGE(.BOTH.,#481);
#481=SURFACE_SIDE_STYLE($,(#482));
#482=SURFACE_STYLE_FILL_AREA(#483);
#483=FILL_AREA_STYLE($,(#484));
#484=FILL_AREA_STYLE_COLOUR($,#485);
#485=COLOUR_RGB('',0.956862745098039,0.956862745098039,0.956862745098039);
ENDSEC;
END-ISO-10303-21;
