ISO-10303-21;
HEADER;
/* Generated by software containing ST-Developer
 * from STEP Tools, Inc. (www.steptools.com) 
 */

FILE_DESCRIPTION(
/* description */ (''),
/* implementation_level */ '2;1');

FILE_NAME(
/* name */ 
'S:\\Bilder_neu\\11158_KriTec_Bolzen_8_D14_exzentrisch\\Inventordateie
n\\11158_KriTec_Bolzen_8_D14_exzentrisch.stp',
/* time_stamp */ '2014-05-08T14:12:34+02:00',
/* author */ ('kostic'),
/* organization */ (''),
/* preprocessor_version */ 'ST-DEVELOPER v15.2',
/* originating_system */ 'Autodesk Inventor 2014',
/* authorisation */ '');

FILE_SCHEMA (('AUTOMOTIVE_DESIGN { 1 0 10303 214 3 1 1 }'));
ENDSEC;

DATA;
#10=SHAPE_REPRESENTATION_RELATIONSHIP('SRR','None',#562,#11);
#11=ADVANCED_BREP_SHAPE_REPRESENTATION($,(#323),#556);
#12=STYLED_ITEM($,(#570),#323);
#13=TOROIDAL_SURFACE($,#331,4.15,0.4);
#14=TOROIDAL_SURFACE($,#336,4.15000000000001,0.400000000000009);
#15=LINE($,#480,#33);
#16=LINE($,#482,#34);
#17=LINE($,#484,#35);
#18=LINE($,#486,#36);
#19=LINE($,#488,#37);
#20=LINE($,#489,#38);
#21=LINE($,#527,#39);
#22=LINE($,#528,#40);
#23=LINE($,#529,#41);
#24=LINE($,#532,#42);
#25=LINE($,#533,#43);
#26=LINE($,#536,#44);
#27=LINE($,#537,#45);
#28=LINE($,#540,#46);
#29=LINE($,#541,#47);
#30=LINE($,#544,#48);
#31=LINE($,#545,#49);
#32=LINE($,#547,#50);
#33=VECTOR($,#380,2.88675134594813);
#34=VECTOR($,#381,2.88675134594812);
#35=VECTOR($,#382,2.88675134594813);
#36=VECTOR($,#383,2.88675134594813);
#37=VECTOR($,#384,2.88675134594812);
#38=VECTOR($,#385,2.88675134594813);
#39=VECTOR($,#432,2.88675134594813);
#40=VECTOR($,#433,6.);
#41=VECTOR($,#434,6.);
#42=VECTOR($,#437,2.88675134594813);
#43=VECTOR($,#438,6.);
#44=VECTOR($,#441,2.88675134594812);
#45=VECTOR($,#442,6.);
#46=VECTOR($,#445,2.88675134594813);
#47=VECTOR($,#446,6.);
#48=VECTOR($,#449,2.88675134594813);
#49=VECTOR($,#450,6.);
#50=VECTOR($,#453,2.88675134594812);
#51=PLANE($,#330);
#52=PLANE($,#353);
#53=PLANE($,#354);
#54=PLANE($,#355);
#55=PLANE($,#356);
#56=PLANE($,#357);
#57=PLANE($,#358);
#58=PLANE($,#359);
#59=PLANE($,#360);
#60=PLANE($,#361);
#61=PLANE($,#362);
#62=PLANE($,#363);
#63=PLANE($,#364);
#64=PLANE($,#365);
#65=CYLINDRICAL_SURFACE($,#328,11.);
#66=CYLINDRICAL_SURFACE($,#334,3.75);
#67=CYLINDRICAL_SURFACE($,#342,5.75);
#68=CYLINDRICAL_SURFACE($,#344,6.);
#69=CYLINDRICAL_SURFACE($,#348,5.);
#70=FACE_BOUND($,#109,.T.);
#71=FACE_BOUND($,#111,.T.);
#72=FACE_BOUND($,#112,.T.);
#73=FACE_BOUND($,#113,.T.);
#74=FACE_BOUND($,#115,.T.);
#75=FACE_BOUND($,#117,.T.);
#76=FACE_BOUND($,#119,.T.);
#77=FACE_BOUND($,#121,.T.);
#78=FACE_BOUND($,#123,.T.);
#79=FACE_BOUND($,#125,.T.);
#80=FACE_BOUND($,#127,.T.);
#81=FACE_BOUND($,#129,.T.);
#82=FACE_BOUND($,#138,.T.);
#83=FACE_BOUND($,#141,.T.);
#84=FACE_BOUND($,#144,.T.);
#85=FACE_OUTER_BOUND($,#108,.T.);
#86=FACE_OUTER_BOUND($,#110,.T.);
#87=FACE_OUTER_BOUND($,#114,.T.);
#88=FACE_OUTER_BOUND($,#116,.T.);
#89=FACE_OUTER_BOUND($,#118,.T.);
#90=FACE_OUTER_BOUND($,#120,.T.);
#91=FACE_OUTER_BOUND($,#122,.T.);
#92=FACE_OUTER_BOUND($,#124,.T.);
#93=FACE_OUTER_BOUND($,#126,.T.);
#94=FACE_OUTER_BOUND($,#128,.T.);
#95=FACE_OUTER_BOUND($,#130,.T.);
#96=FACE_OUTER_BOUND($,#131,.T.);
#97=FACE_OUTER_BOUND($,#132,.T.);
#98=FACE_OUTER_BOUND($,#133,.T.);
#99=FACE_OUTER_BOUND($,#134,.T.);
#100=FACE_OUTER_BOUND($,#135,.T.);
#101=FACE_OUTER_BOUND($,#136,.T.);
#102=FACE_OUTER_BOUND($,#137,.T.);
#103=FACE_OUTER_BOUND($,#139,.T.);
#104=FACE_OUTER_BOUND($,#140,.T.);
#105=FACE_OUTER_BOUND($,#142,.T.);
#106=FACE_OUTER_BOUND($,#143,.T.);
#107=FACE_OUTER_BOUND($,#145,.T.);
#108=EDGE_LOOP($,(#225));
#109=EDGE_LOOP($,(#226));
#110=EDGE_LOOP($,(#227));
#111=EDGE_LOOP($,(#228));
#112=EDGE_LOOP($,(#229,#230,#231,#232,#233,#234));
#113=EDGE_LOOP($,(#235));
#114=EDGE_LOOP($,(#236));
#115=EDGE_LOOP($,(#237));
#116=EDGE_LOOP($,(#238));
#117=EDGE_LOOP($,(#239));
#118=EDGE_LOOP($,(#240));
#119=EDGE_LOOP($,(#241));
#120=EDGE_LOOP($,(#242,#243));
#121=EDGE_LOOP($,(#244));
#122=EDGE_LOOP($,(#245));
#123=EDGE_LOOP($,(#246));
#124=EDGE_LOOP($,(#247));
#125=EDGE_LOOP($,(#248,#249));
#126=EDGE_LOOP($,(#250));
#127=EDGE_LOOP($,(#251));
#128=EDGE_LOOP($,(#252));
#129=EDGE_LOOP($,(#253));
#130=EDGE_LOOP($,(#254,#255,#256,#257));
#131=EDGE_LOOP($,(#258,#259,#260,#261));
#132=EDGE_LOOP($,(#262,#263,#264,#265));
#133=EDGE_LOOP($,(#266,#267,#268,#269));
#134=EDGE_LOOP($,(#270,#271,#272,#273));
#135=EDGE_LOOP($,(#274,#275,#276,#277));
#136=EDGE_LOOP($,(#278,#279,#280,#281,#282,#283));
#137=EDGE_LOOP($,(#284));
#138=EDGE_LOOP($,(#285));
#139=EDGE_LOOP($,(#286));
#140=EDGE_LOOP($,(#287));
#141=EDGE_LOOP($,(#288));
#142=EDGE_LOOP($,(#289,#290));
#143=EDGE_LOOP($,(#291));
#144=EDGE_LOOP($,(#292));
#145=EDGE_LOOP($,(#293,#294));
#146=CIRCLE($,#326,10.5);
#147=CIRCLE($,#327,11.);
#148=CIRCLE($,#329,11.);
#149=CIRCLE($,#332,4.15);
#150=CIRCLE($,#333,3.75);
#151=CIRCLE($,#335,3.75);
#152=CIRCLE($,#337,4.15);
#153=CIRCLE($,#339,6.);
#154=CIRCLE($,#340,6.);
#155=CIRCLE($,#341,5.75);
#156=CIRCLE($,#343,5.75);
#157=CIRCLE($,#345,6.);
#158=CIRCLE($,#346,6.);
#159=CIRCLE($,#347,6.);
#160=CIRCLE($,#349,5.);
#161=CIRCLE($,#350,5.);
#162=CIRCLE($,#352,3.);
#163=VERTEX_POINT($,#470);
#164=VERTEX_POINT($,#472);
#165=VERTEX_POINT($,#475);
#166=VERTEX_POINT($,#478);
#167=VERTEX_POINT($,#479);
#168=VERTEX_POINT($,#481);
#169=VERTEX_POINT($,#483);
#170=VERTEX_POINT($,#485);
#171=VERTEX_POINT($,#487);
#172=VERTEX_POINT($,#491);
#173=VERTEX_POINT($,#493);
#174=VERTEX_POINT($,#496);
#175=VERTEX_POINT($,#499);
#176=VERTEX_POINT($,#502);
#177=VERTEX_POINT($,#503);
#178=VERTEX_POINT($,#506);
#179=VERTEX_POINT($,#509);
#180=VERTEX_POINT($,#512);
#181=VERTEX_POINT($,#517);
#182=VERTEX_POINT($,#519);
#183=VERTEX_POINT($,#522);
#184=VERTEX_POINT($,#525);
#185=VERTEX_POINT($,#526);
#186=VERTEX_POINT($,#531);
#187=VERTEX_POINT($,#535);
#188=VERTEX_POINT($,#539);
#189=VERTEX_POINT($,#543);
#190=EDGE_CURVE($,#163,#163,#146,.T.);
#191=EDGE_CURVE($,#164,#164,#147,.T.);
#192=EDGE_CURVE($,#165,#165,#148,.T.);
#193=EDGE_CURVE($,#166,#167,#15,.T.);
#194=EDGE_CURVE($,#167,#168,#16,.T.);
#195=EDGE_CURVE($,#168,#169,#17,.T.);
#196=EDGE_CURVE($,#169,#170,#18,.T.);
#197=EDGE_CURVE($,#170,#171,#19,.T.);
#198=EDGE_CURVE($,#171,#166,#20,.T.);
#199=EDGE_CURVE($,#172,#172,#149,.T.);
#200=EDGE_CURVE($,#173,#173,#150,.T.);
#201=EDGE_CURVE($,#174,#174,#151,.T.);
#202=EDGE_CURVE($,#175,#175,#152,.T.);
#203=EDGE_CURVE($,#176,#177,#153,.T.);
#204=EDGE_CURVE($,#177,#176,#154,.T.);
#205=EDGE_CURVE($,#178,#178,#155,.T.);
#206=EDGE_CURVE($,#179,#179,#156,.T.);
#207=EDGE_CURVE($,#180,#180,#157,.T.);
#208=EDGE_CURVE($,#176,#177,#158,.T.);
#209=EDGE_CURVE($,#177,#176,#159,.T.);
#210=EDGE_CURVE($,#181,#181,#160,.T.);
#211=EDGE_CURVE($,#182,#182,#161,.T.);
#212=EDGE_CURVE($,#183,#183,#162,.T.);
#213=EDGE_CURVE($,#184,#185,#21,.T.);
#214=EDGE_CURVE($,#167,#184,#22,.T.);
#215=EDGE_CURVE($,#166,#185,#23,.T.);
#216=EDGE_CURVE($,#185,#186,#24,.T.);
#217=EDGE_CURVE($,#171,#186,#25,.T.);
#218=EDGE_CURVE($,#186,#187,#26,.T.);
#219=EDGE_CURVE($,#170,#187,#27,.T.);
#220=EDGE_CURVE($,#187,#188,#28,.T.);
#221=EDGE_CURVE($,#169,#188,#29,.T.);
#222=EDGE_CURVE($,#188,#189,#30,.T.);
#223=EDGE_CURVE($,#168,#189,#31,.T.);
#224=EDGE_CURVE($,#189,#184,#32,.T.);
#225=ORIENTED_EDGE($,*,*,#190,.T.);
#226=ORIENTED_EDGE($,*,*,#191,.T.);
#227=ORIENTED_EDGE($,*,*,#192,.F.);
#228=ORIENTED_EDGE($,*,*,#191,.F.);
#229=ORIENTED_EDGE($,*,*,#193,.T.);
#230=ORIENTED_EDGE($,*,*,#194,.T.);
#231=ORIENTED_EDGE($,*,*,#195,.T.);
#232=ORIENTED_EDGE($,*,*,#196,.T.);
#233=ORIENTED_EDGE($,*,*,#197,.T.);
#234=ORIENTED_EDGE($,*,*,#198,.T.);
#235=ORIENTED_EDGE($,*,*,#190,.F.);
#236=ORIENTED_EDGE($,*,*,#199,.F.);
#237=ORIENTED_EDGE($,*,*,#200,.T.);
#238=ORIENTED_EDGE($,*,*,#200,.F.);
#239=ORIENTED_EDGE($,*,*,#201,.T.);
#240=ORIENTED_EDGE($,*,*,#201,.F.);
#241=ORIENTED_EDGE($,*,*,#202,.T.);
#242=ORIENTED_EDGE($,*,*,#203,.F.);
#243=ORIENTED_EDGE($,*,*,#204,.F.);
#244=ORIENTED_EDGE($,*,*,#205,.T.);
#245=ORIENTED_EDGE($,*,*,#205,.F.);
#246=ORIENTED_EDGE($,*,*,#206,.T.);
#247=ORIENTED_EDGE($,*,*,#207,.F.);
#248=ORIENTED_EDGE($,*,*,#208,.F.);
#249=ORIENTED_EDGE($,*,*,#209,.F.);
#250=ORIENTED_EDGE($,*,*,#210,.F.);
#251=ORIENTED_EDGE($,*,*,#211,.T.);
#252=ORIENTED_EDGE($,*,*,#211,.F.);
#253=ORIENTED_EDGE($,*,*,#212,.F.);
#254=ORIENTED_EDGE($,*,*,#213,.F.);
#255=ORIENTED_EDGE($,*,*,#214,.F.);
#256=ORIENTED_EDGE($,*,*,#193,.F.);
#257=ORIENTED_EDGE($,*,*,#215,.T.);
#258=ORIENTED_EDGE($,*,*,#216,.F.);
#259=ORIENTED_EDGE($,*,*,#215,.F.);
#260=ORIENTED_EDGE($,*,*,#198,.F.);
#261=ORIENTED_EDGE($,*,*,#217,.T.);
#262=ORIENTED_EDGE($,*,*,#218,.F.);
#263=ORIENTED_EDGE($,*,*,#217,.F.);
#264=ORIENTED_EDGE($,*,*,#197,.F.);
#265=ORIENTED_EDGE($,*,*,#219,.T.);
#266=ORIENTED_EDGE($,*,*,#220,.F.);
#267=ORIENTED_EDGE($,*,*,#219,.F.);
#268=ORIENTED_EDGE($,*,*,#196,.F.);
#269=ORIENTED_EDGE($,*,*,#221,.T.);
#270=ORIENTED_EDGE($,*,*,#222,.F.);
#271=ORIENTED_EDGE($,*,*,#221,.F.);
#272=ORIENTED_EDGE($,*,*,#195,.F.);
#273=ORIENTED_EDGE($,*,*,#223,.T.);
#274=ORIENTED_EDGE($,*,*,#224,.F.);
#275=ORIENTED_EDGE($,*,*,#223,.F.);
#276=ORIENTED_EDGE($,*,*,#194,.F.);
#277=ORIENTED_EDGE($,*,*,#214,.T.);
#278=ORIENTED_EDGE($,*,*,#213,.T.);
#279=ORIENTED_EDGE($,*,*,#216,.T.);
#280=ORIENTED_EDGE($,*,*,#218,.T.);
#281=ORIENTED_EDGE($,*,*,#220,.T.);
#282=ORIENTED_EDGE($,*,*,#222,.T.);
#283=ORIENTED_EDGE($,*,*,#224,.T.);
#284=ORIENTED_EDGE($,*,*,#210,.T.);
#285=ORIENTED_EDGE($,*,*,#199,.T.);
#286=ORIENTED_EDGE($,*,*,#212,.T.);
#287=ORIENTED_EDGE($,*,*,#207,.T.);
#288=ORIENTED_EDGE($,*,*,#202,.F.);
#289=ORIENTED_EDGE($,*,*,#204,.T.);
#290=ORIENTED_EDGE($,*,*,#208,.T.);
#291=ORIENTED_EDGE($,*,*,#192,.T.);
#292=ORIENTED_EDGE($,*,*,#206,.F.);
#293=ORIENTED_EDGE($,*,*,#209,.T.);
#294=ORIENTED_EDGE($,*,*,#203,.T.);
#295=CONICAL_SURFACE($,#325,10.75,0.785398163397449);
#296=CONICAL_SURFACE($,#338,5.875,0.785398163397448);
#297=CONICAL_SURFACE($,#351,4.,0.785398163397448);
#298=ADVANCED_FACE($,(#85,#70),#295,.T.);
#299=ADVANCED_FACE($,(#86,#71),#65,.T.);
#300=ADVANCED_FACE($,(#72,#73),#51,.T.);
#301=ADVANCED_FACE($,(#87,#74),#13,.F.);
#302=ADVANCED_FACE($,(#88,#75),#66,.T.);
#303=ADVANCED_FACE($,(#89,#76),#14,.F.);
#304=ADVANCED_FACE($,(#90,#77),#296,.T.);
#305=ADVANCED_FACE($,(#91,#78),#67,.T.);
#306=ADVANCED_FACE($,(#92,#79),#68,.T.);
#307=ADVANCED_FACE($,(#93,#80),#69,.T.);
#308=ADVANCED_FACE($,(#94,#81),#297,.T.);
#309=ADVANCED_FACE($,(#95),#52,.F.);
#310=ADVANCED_FACE($,(#96),#53,.F.);
#311=ADVANCED_FACE($,(#97),#54,.F.);
#312=ADVANCED_FACE($,(#98),#55,.F.);
#313=ADVANCED_FACE($,(#99),#56,.F.);
#314=ADVANCED_FACE($,(#100),#57,.F.);
#315=ADVANCED_FACE($,(#101),#58,.T.);
#316=ADVANCED_FACE($,(#102,#82),#59,.T.);
#317=ADVANCED_FACE($,(#103),#60,.T.);
#318=ADVANCED_FACE($,(#104,#83),#61,.T.);
#319=ADVANCED_FACE($,(#105),#62,.T.);
#320=ADVANCED_FACE($,(#106,#84),#63,.T.);
#321=ADVANCED_FACE($,(#107),#64,.T.);
#322=CLOSED_SHELL($,(#298,#299,#300,#301,#302,#303,#304,#305,#306,#307,
#308,#309,#310,#311,#312,#313,#314,#315,#316,#317,#318,#319,#320,#321));
#323=MANIFOLD_SOLID_BREP('1',#322);
#324=AXIS2_PLACEMENT_3D('placement',#468,#366,#367);
#325=AXIS2_PLACEMENT_3D($,#469,#368,#369);
#326=AXIS2_PLACEMENT_3D($,#471,#370,#371);
#327=AXIS2_PLACEMENT_3D($,#473,#372,#373);
#328=AXIS2_PLACEMENT_3D($,#474,#374,#375);
#329=AXIS2_PLACEMENT_3D($,#476,#376,#377);
#330=AXIS2_PLACEMENT_3D($,#477,#378,#379);
#331=AXIS2_PLACEMENT_3D($,#490,#386,#387);
#332=AXIS2_PLACEMENT_3D($,#492,#388,#389);
#333=AXIS2_PLACEMENT_3D($,#494,#390,#391);
#334=AXIS2_PLACEMENT_3D($,#495,#392,#393);
#335=AXIS2_PLACEMENT_3D($,#497,#394,#395);
#336=AXIS2_PLACEMENT_3D($,#498,#396,#397);
#337=AXIS2_PLACEMENT_3D($,#500,#398,#399);
#338=AXIS2_PLACEMENT_3D($,#501,#400,#401);
#339=AXIS2_PLACEMENT_3D($,#504,#402,#403);
#340=AXIS2_PLACEMENT_3D($,#505,#404,#405);
#341=AXIS2_PLACEMENT_3D($,#507,#406,#407);
#342=AXIS2_PLACEMENT_3D($,#508,#408,#409);
#343=AXIS2_PLACEMENT_3D($,#510,#410,#411);
#344=AXIS2_PLACEMENT_3D($,#511,#412,#413);
#345=AXIS2_PLACEMENT_3D($,#513,#414,#415);
#346=AXIS2_PLACEMENT_3D($,#514,#416,#417);
#347=AXIS2_PLACEMENT_3D($,#515,#418,#419);
#348=AXIS2_PLACEMENT_3D($,#516,#420,#421);
#349=AXIS2_PLACEMENT_3D($,#518,#422,#423);
#350=AXIS2_PLACEMENT_3D($,#520,#424,#425);
#351=AXIS2_PLACEMENT_3D($,#521,#426,#427);
#352=AXIS2_PLACEMENT_3D($,#523,#428,#429);
#353=AXIS2_PLACEMENT_3D($,#524,#430,#431);
#354=AXIS2_PLACEMENT_3D($,#530,#435,#436);
#355=AXIS2_PLACEMENT_3D($,#534,#439,#440);
#356=AXIS2_PLACEMENT_3D($,#538,#443,#444);
#357=AXIS2_PLACEMENT_3D($,#542,#447,#448);
#358=AXIS2_PLACEMENT_3D($,#546,#451,#452);
#359=AXIS2_PLACEMENT_3D($,#548,#454,#455);
#360=AXIS2_PLACEMENT_3D($,#549,#456,#457);
#361=AXIS2_PLACEMENT_3D($,#550,#458,#459);
#362=AXIS2_PLACEMENT_3D($,#551,#460,#461);
#363=AXIS2_PLACEMENT_3D($,#552,#462,#463);
#364=AXIS2_PLACEMENT_3D($,#553,#464,#465);
#365=AXIS2_PLACEMENT_3D($,#554,#466,#467);
#366=DIRECTION('axis',(0.,0.,1.));
#367=DIRECTION('refdir',(1.,0.,0.));
#368=DIRECTION('center_axis',(0.,1.,0.));
#369=DIRECTION('ref_axis',(0.,0.,1.));
#370=DIRECTION('center_axis',(0.,1.,0.));
#371=DIRECTION('ref_axis',(0.,0.,1.));
#372=DIRECTION('center_axis',(0.,-1.,0.));
#373=DIRECTION('ref_axis',(0.,0.,1.));
#374=DIRECTION('center_axis',(0.,-1.,0.));
#375=DIRECTION('ref_axis',(0.,0.,1.));
#376=DIRECTION('center_axis',(0.,1.,0.));
#377=DIRECTION('ref_axis',(0.,0.,1.));
#378=DIRECTION('center_axis',(0.,-1.,0.));
#379=DIRECTION('ref_axis',(0.,0.,-1.));
#380=DIRECTION($,(0.866025403784439,0.,-0.5));
#381=DIRECTION($,(0.,0.,-1.));
#382=DIRECTION($,(-0.866025403784439,0.,-0.5));
#383=DIRECTION($,(-0.866025403784439,0.,0.5));
#384=DIRECTION($,(0.,0.,1.));
#385=DIRECTION($,(0.866025403784439,0.,0.5));
#386=DIRECTION('center_axis',(0.,1.,0.));
#387=DIRECTION('ref_axis',(0.,0.,-1.));
#388=DIRECTION('center_axis',(0.,1.,0.));
#389=DIRECTION('ref_axis',(0.,0.,1.));
#390=DIRECTION('center_axis',(0.,1.,0.));
#391=DIRECTION('ref_axis',(0.,0.,1.));
#392=DIRECTION('center_axis',(0.,-1.,0.));
#393=DIRECTION('ref_axis',(0.,0.,1.));
#394=DIRECTION('center_axis',(0.,1.,0.));
#395=DIRECTION('ref_axis',(0.,0.,1.));
#396=DIRECTION('center_axis',(0.,1.,0.));
#397=DIRECTION('ref_axis',(0.,0.,-1.));
#398=DIRECTION('center_axis',(0.,1.,0.));
#399=DIRECTION('ref_axis',(0.,0.,1.));
#400=DIRECTION('center_axis',(0.,1.,0.));
#401=DIRECTION('ref_axis',(0.,0.,1.));
#402=DIRECTION('center_axis',(0.,1.,0.));
#403=DIRECTION('ref_axis',(0.,0.,1.));
#404=DIRECTION('center_axis',(0.,1.,0.));
#405=DIRECTION('ref_axis',(0.,0.,1.));
#406=DIRECTION('center_axis',(0.,1.,0.));
#407=DIRECTION('ref_axis',(0.,0.,1.));
#408=DIRECTION('center_axis',(0.,-1.,0.));
#409=DIRECTION('ref_axis',(0.,0.,1.));
#410=DIRECTION('center_axis',(0.,1.,0.));
#411=DIRECTION('ref_axis',(0.,0.,1.));
#412=DIRECTION('center_axis',(0.,-1.,0.));
#413=DIRECTION('ref_axis',(1.,0.,0.));
#414=DIRECTION('center_axis',(0.,1.,0.));
#415=DIRECTION('ref_axis',(1.,0.,0.));
#416=DIRECTION('center_axis',(0.,-1.,0.));
#417=DIRECTION('ref_axis',(1.,0.,0.));
#418=DIRECTION('center_axis',(0.,-1.,0.));
#419=DIRECTION('ref_axis',(1.,0.,0.));
#420=DIRECTION('center_axis',(0.,1.,0.));
#421=DIRECTION('ref_axis',(1.,0.,0.));
#422=DIRECTION('center_axis',(0.,-1.,0.));
#423=DIRECTION('ref_axis',(1.,0.,0.));
#424=DIRECTION('center_axis',(0.,-1.,0.));
#425=DIRECTION('ref_axis',(1.,0.,0.));
#426=DIRECTION('center_axis',(0.,-1.,0.));
#427=DIRECTION('ref_axis',(0.,0.,1.));
#428=DIRECTION('center_axis',(0.,1.,0.));
#429=DIRECTION('ref_axis',(0.,0.,1.));
#430=DIRECTION('center_axis',(0.5,0.,0.866025403784439));
#431=DIRECTION('ref_axis',(0.866025403784439,0.,-0.5));
#432=DIRECTION($,(-0.866025403784439,0.,0.5));
#433=DIRECTION($,(0.,1.,0.));
#434=DIRECTION($,(0.,1.,0.));
#435=DIRECTION('center_axis',(-0.5,0.,0.866025403784439));
#436=DIRECTION('ref_axis',(0.866025403784439,0.,0.5));
#437=DIRECTION($,(-0.866025403784439,0.,-0.5));
#438=DIRECTION($,(0.,1.,0.));
#439=DIRECTION('center_axis',(-1.,0.,0.));
#440=DIRECTION('ref_axis',(0.,0.,1.));
#441=DIRECTION($,(0.,0.,-1.));
#442=DIRECTION($,(0.,1.,0.));
#443=DIRECTION('center_axis',(-0.5,0.,-0.866025403784439));
#444=DIRECTION('ref_axis',(-0.866025403784439,0.,0.5));
#445=DIRECTION($,(0.866025403784439,0.,-0.5));
#446=DIRECTION($,(0.,1.,0.));
#447=DIRECTION('center_axis',(0.5,0.,-0.866025403784439));
#448=DIRECTION('ref_axis',(-0.866025403784439,0.,-0.5));
#449=DIRECTION($,(0.866025403784439,0.,0.5));
#450=DIRECTION($,(0.,1.,0.));
#451=DIRECTION('center_axis',(1.,0.,0.));
#452=DIRECTION('ref_axis',(0.,0.,-1.));
#453=DIRECTION($,(0.,0.,1.));
#454=DIRECTION('center_axis',(0.,-1.,0.));
#455=DIRECTION('ref_axis',(1.,0.,0.));
#456=DIRECTION('center_axis',(0.,-1.,0.));
#457=DIRECTION('ref_axis',(1.,0.,0.));
#458=DIRECTION('center_axis',(0.,1.,0.));
#459=DIRECTION('ref_axis',(-1.,0.,0.));
#460=DIRECTION('center_axis',(0.,1.,0.));
#461=DIRECTION('ref_axis',(1.,0.,0.));
#462=DIRECTION('center_axis',(0.,-1.,0.));
#463=DIRECTION('ref_axis',(-1.,0.,0.));
#464=DIRECTION('center_axis',(0.,1.,0.));
#465=DIRECTION('ref_axis',(0.,0.,1.));
#466=DIRECTION('center_axis',(0.,1.,0.));
#467=DIRECTION('ref_axis',(0.,0.,1.));
#468=CARTESIAN_POINT('',(0.,0.,0.));
#469=CARTESIAN_POINT('Origin',(0.,0.25,0.));
#470=CARTESIAN_POINT('',(-1.28587913910472E-015,0.,-10.5));
#471=CARTESIAN_POINT('Origin',(0.,0.,0.));
#472=CARTESIAN_POINT('',(1.34711147906209E-015,0.5,-11.));
#473=CARTESIAN_POINT('Origin',(0.,0.5,0.));
#474=CARTESIAN_POINT('Origin',(0.,4.,0.));
#475=CARTESIAN_POINT('',(1.34706698920462E-015,8.,-11.));
#476=CARTESIAN_POINT('Origin',(0.,8.,0.));
#477=CARTESIAN_POINT('Origin',(0.,0.,5.5));
#478=CARTESIAN_POINT('',(0.,0.,2.88675134594813));
#479=CARTESIAN_POINT('',(2.5,0.,1.44337567297406));
#480=CARTESIAN_POINT($,(0.684215069796397,0.,2.49171959121758));
#481=CARTESIAN_POINT('',(2.5,0.,-1.44337567297406));
#482=CARTESIAN_POINT($,(2.5,0.,2.75));
#483=CARTESIAN_POINT('',(0.,0.,-2.88675134594813));
#484=CARTESIAN_POINT($,(1.8157849302036,0.,-1.83840742770461));
#485=CARTESIAN_POINT('',(-2.5,0.,-1.44337567297406));
#486=CARTESIAN_POINT($,(-3.0657849302036,0.,-1.11671959121758));
#487=CARTESIAN_POINT('',(-2.5,0.,1.44337567297406));
#488=CARTESIAN_POINT($,(-2.5,0.,3.47168783648703));
#489=CARTESIAN_POINT($,(0.565784930203603,0.,3.21340742770461));
#490=CARTESIAN_POINT('Origin',(0.,31.4,0.));
#491=CARTESIAN_POINT('',(5.08211636836287E-016,31.8,-4.15));
#492=CARTESIAN_POINT('Origin',(0.,31.8,0.));
#493=CARTESIAN_POINT('',(4.59227382683392E-016,31.4,-3.75));
#494=CARTESIAN_POINT('Origin',(0.,31.4,0.));
#495=CARTESIAN_POINT('Origin',(0.,29.8,0.));
#496=CARTESIAN_POINT('',(4.59227382683391E-016,28.2,-3.75));
#497=CARTESIAN_POINT('Origin',(0.,28.2,0.));
#498=CARTESIAN_POINT('Origin',(0.,28.2,0.));
#499=CARTESIAN_POINT('',(5.08211636836287E-016,27.8,-4.15));
#500=CARTESIAN_POINT('Origin',(0.,27.8,0.));
#501=CARTESIAN_POINT('Origin',(0.,9.875,0.));
#502=CARTESIAN_POINT('',(5.9791303715507,10.,0.5));
#503=CARTESIAN_POINT('',(-5.9791303715507,10.,0.5));
#504=CARTESIAN_POINT('Origin',(0.,10.,0.));
#505=CARTESIAN_POINT('Origin',(0.,10.,0.));
#506=CARTESIAN_POINT('',(7.04148653447867E-016,9.75,-5.75));
#507=CARTESIAN_POINT('Origin',(0.,9.75,0.));
#508=CARTESIAN_POINT('Origin',(0.,8.875,0.));
#509=CARTESIAN_POINT('',(7.04148653447867E-016,8.,-5.75));
#510=CARTESIAN_POINT('Origin',(0.,8.,0.));
#511=CARTESIAN_POINT('Origin',(0.,18.9,1.));
#512=CARTESIAN_POINT('',(-6.,27.8,0.999999999999999));
#513=CARTESIAN_POINT('Origin',(0.,27.8,1.));
#514=CARTESIAN_POINT('Origin',(0.,10.,1.));
#515=CARTESIAN_POINT('Origin',(0.,10.,1.));
#516=CARTESIAN_POINT('Origin',(0.,38.9,0.));
#517=CARTESIAN_POINT('',(-5.,31.8,6.12303176911189E-016));
#518=CARTESIAN_POINT('Origin',(0.,31.8,0.));
#519=CARTESIAN_POINT('',(6.12303176911189E-016,44.,-5.));
#520=CARTESIAN_POINT('Origin',(0.,44.,0.));
#521=CARTESIAN_POINT('Origin',(0.,45.,0.));
#522=CARTESIAN_POINT('',(3.67381906146713E-016,46.,-3.));
#523=CARTESIAN_POINT('Origin',(0.,46.,0.));
#524=CARTESIAN_POINT('Origin',(2.5,0.,1.44337567297406));
#525=CARTESIAN_POINT('',(2.5,6.,1.44337567297406));
#526=CARTESIAN_POINT('',(0.,6.,2.88675134594813));
#527=CARTESIAN_POINT($,(2.5,6.,1.44337567297406));
#528=CARTESIAN_POINT($,(2.5,0.,1.44337567297406));
#529=CARTESIAN_POINT($,(0.,0.,2.88675134594813));
#530=CARTESIAN_POINT('Origin',(0.,0.,2.88675134594813));
#531=CARTESIAN_POINT('',(-2.5,6.,1.44337567297406));
#532=CARTESIAN_POINT($,(0.,6.,2.88675134594813));
#533=CARTESIAN_POINT($,(-2.5,0.,1.44337567297406));
#534=CARTESIAN_POINT('Origin',(-2.5,0.,1.44337567297406));
#535=CARTESIAN_POINT('',(-2.5,6.,-1.44337567297406));
#536=CARTESIAN_POINT($,(-2.5,6.,1.44337567297406));
#537=CARTESIAN_POINT($,(-2.5,0.,-1.44337567297406));
#538=CARTESIAN_POINT('Origin',(-2.5,0.,-1.44337567297406));
#539=CARTESIAN_POINT('',(0.,6.,-2.88675134594813));
#540=CARTESIAN_POINT($,(-2.5,6.,-1.44337567297406));
#541=CARTESIAN_POINT($,(0.,0.,-2.88675134594813));
#542=CARTESIAN_POINT('Origin',(0.,0.,-2.88675134594813));
#543=CARTESIAN_POINT('',(2.5,6.,-1.44337567297406));
#544=CARTESIAN_POINT($,(0.,6.,-2.88675134594813));
#545=CARTESIAN_POINT($,(2.5,0.,-1.44337567297406));
#546=CARTESIAN_POINT('Origin',(2.5,0.,0.));
#547=CARTESIAN_POINT($,(2.5,6.,0.));
#548=CARTESIAN_POINT('Origin',(0.,6.,0.));
#549=CARTESIAN_POINT('Origin',(2.5,31.8,0.));
#550=CARTESIAN_POINT('Origin',(2.5,46.,0.));
#551=CARTESIAN_POINT('Origin',(0.,27.8,1.));
#552=CARTESIAN_POINT('Origin',(0.,10.,1.));
#553=CARTESIAN_POINT('Origin',(0.,8.,8.375));
#554=CARTESIAN_POINT('Origin',(0.,10.,3.));
#555=UNCERTAINTY_MEASURE_WITH_UNIT(LENGTH_MEASURE(0.01),#557,
'DISTANCE_ACCURACY_VALUE',
'Maximum model space distance between geometric entities at asserted c
onnectivities');
#556=(
GEOMETRIC_REPRESENTATION_CONTEXT(3)
GLOBAL_UNCERTAINTY_ASSIGNED_CONTEXT((#555))
GLOBAL_UNIT_ASSIGNED_CONTEXT((#557,#559,#558))
REPRESENTATION_CONTEXT('','3D')
);
#557=(
LENGTH_UNIT()
NAMED_UNIT(*)
SI_UNIT(.MILLI.,.METRE.)
);
#558=(
NAMED_UNIT(*)
SI_UNIT($,.STERADIAN.)
SOLID_ANGLE_UNIT()
);
#559=(
NAMED_UNIT(*)
PLANE_ANGLE_UNIT()
SI_UNIT($,.RADIAN.)
);
#560=SHAPE_DEFINITION_REPRESENTATION(#561,#562);
#561=PRODUCT_DEFINITION_SHAPE('',$,#564);
#562=SHAPE_REPRESENTATION('',(#324),#556);
#563=PRODUCT_DEFINITION_CONTEXT('3D Mechanical Parts',#567,'design');
#564=PRODUCT_DEFINITION('11158_KriTec_Bolzen_8_D14_exzentrisch',
'11158_KriTec_Bolzen_8_D14_exzentrisch',#565,#563);
#565=PRODUCT_DEFINITION_FORMATION('',$,#569);
#566=APPLICATION_PROTOCOL_DEFINITION('international standard',
'automotive_design',2009,#567);
#567=APPLICATION_CONTEXT(
'Core Data for Automotive Mechanical Design Process');
#568=PRODUCT_CONTEXT('3D Mechanical Parts',#567,'mechanical');
#569=PRODUCT('11158_KriTec_Bolzen_8_D14_exzentrisch',
'11158_KriTec_Bolzen_8_D14_exzentrisch',$,(#568));
#570=PRESENTATION_STYLE_ASSIGNMENT((#571));
#571=SURFACE_STYLE_USAGE(.BOTH.,#572);
#572=SURFACE_SIDE_STYLE($,(#573));
#573=SURFACE_STYLE_FILL_AREA(#574);
#574=FILL_AREA_STYLE($,(#575));
#575=FILL_AREA_STYLE_COLOUR($,#576);
#576=COLOUR_RGB('',0.501960784313725,0.501960784313725,0.501960784313725);
ENDSEC;
END-ISO-10303-21;
