ISO-10303-21;
HEADER;
/* Generated by software containing ST-Developer
 * from STEP Tools, Inc. (www.steptools.com) 
 */

FILE_DESCRIPTION(
/* description */ (''),
/* implementation_level */ '2;1');

FILE_NAME(
/* name */ 
'S:\\Bilder_neu\\11157_KriTec_Bolzen_8_D14_zentrisch\\Inventordateien\\
11157_KriTec_Bolzen_8_D14_zentrisch.stp',
/* time_stamp */ '2014-05-08T14:17:26+02:00',
/* author */ ('kostic'),
/* organization */ (''),
/* preprocessor_version */ 'ST-DEVELOPER v15.2',
/* originating_system */ 'Autodesk Inventor 2014',
/* authorisation */ '');

FILE_SCHEMA (('AUTOMOTIVE_DESIGN { 1 0 10303 214 3 1 1 }'));
ENDSEC;

DATA;
#10=SHAPE_REPRESENTATION_RELATIONSHIP('SRR','None',#520,#11);
#11=ADVANCED_BREP_SHAPE_REPRESENTATION($,(#302),#514);
#12=STYLED_ITEM($,(#528),#302);
#13=TOROIDAL_SURFACE($,#315,4.15,0.4);
#14=TOROIDAL_SURFACE($,#320,4.15000000000001,0.400000000000009);
#15=LINE($,#444,#33);
#16=LINE($,#446,#34);
#17=LINE($,#448,#35);
#18=LINE($,#450,#36);
#19=LINE($,#452,#37);
#20=LINE($,#453,#38);
#21=LINE($,#487,#39);
#22=LINE($,#488,#40);
#23=LINE($,#489,#41);
#24=LINE($,#492,#42);
#25=LINE($,#493,#43);
#26=LINE($,#496,#44);
#27=LINE($,#497,#45);
#28=LINE($,#500,#46);
#29=LINE($,#501,#47);
#30=LINE($,#504,#48);
#31=LINE($,#505,#49);
#32=LINE($,#507,#50);
#33=VECTOR($,#354,2.88675134594813);
#34=VECTOR($,#355,2.88675134594812);
#35=VECTOR($,#356,2.88675134594813);
#36=VECTOR($,#357,2.88675134594813);
#37=VECTOR($,#358,2.88675134594812);
#38=VECTOR($,#359,2.88675134594813);
#39=VECTOR($,#400,2.88675134594813);
#40=VECTOR($,#401,6.);
#41=VECTOR($,#402,6.);
#42=VECTOR($,#405,2.88675134594813);
#43=VECTOR($,#406,6.);
#44=VECTOR($,#409,2.88675134594812);
#45=VECTOR($,#410,6.);
#46=VECTOR($,#413,2.88675134594813);
#47=VECTOR($,#414,6.);
#48=VECTOR($,#417,2.88675134594813);
#49=VECTOR($,#418,6.);
#50=VECTOR($,#421,2.88675134594812);
#51=PLANE($,#309);
#52=PLANE($,#329);
#53=PLANE($,#330);
#54=PLANE($,#331);
#55=PLANE($,#332);
#56=PLANE($,#333);
#57=PLANE($,#334);
#58=PLANE($,#335);
#59=PLANE($,#336);
#60=PLANE($,#337);
#61=PLANE($,#338);
#62=PLANE($,#339);
#63=CYLINDRICAL_SURFACE($,#307,11.);
#64=CYLINDRICAL_SURFACE($,#313,5.75);
#65=CYLINDRICAL_SURFACE($,#318,3.75);
#66=CYLINDRICAL_SURFACE($,#322,6.);
#67=CYLINDRICAL_SURFACE($,#324,5.);
#68=FACE_BOUND($,#105,.T.);
#69=FACE_BOUND($,#107,.T.);
#70=FACE_BOUND($,#108,.T.);
#71=FACE_BOUND($,#109,.T.);
#72=FACE_BOUND($,#111,.T.);
#73=FACE_BOUND($,#113,.T.);
#74=FACE_BOUND($,#115,.T.);
#75=FACE_BOUND($,#117,.T.);
#76=FACE_BOUND($,#119,.T.);
#77=FACE_BOUND($,#121,.T.);
#78=FACE_BOUND($,#123,.T.);
#79=FACE_BOUND($,#125,.T.);
#80=FACE_BOUND($,#134,.T.);
#81=FACE_BOUND($,#137,.T.);
#82=FACE_BOUND($,#139,.T.);
#83=FACE_OUTER_BOUND($,#104,.T.);
#84=FACE_OUTER_BOUND($,#106,.T.);
#85=FACE_OUTER_BOUND($,#110,.T.);
#86=FACE_OUTER_BOUND($,#112,.T.);
#87=FACE_OUTER_BOUND($,#114,.T.);
#88=FACE_OUTER_BOUND($,#116,.T.);
#89=FACE_OUTER_BOUND($,#118,.T.);
#90=FACE_OUTER_BOUND($,#120,.T.);
#91=FACE_OUTER_BOUND($,#122,.T.);
#92=FACE_OUTER_BOUND($,#124,.T.);
#93=FACE_OUTER_BOUND($,#126,.T.);
#94=FACE_OUTER_BOUND($,#127,.T.);
#95=FACE_OUTER_BOUND($,#128,.T.);
#96=FACE_OUTER_BOUND($,#129,.T.);
#97=FACE_OUTER_BOUND($,#130,.T.);
#98=FACE_OUTER_BOUND($,#131,.T.);
#99=FACE_OUTER_BOUND($,#132,.T.);
#100=FACE_OUTER_BOUND($,#133,.T.);
#101=FACE_OUTER_BOUND($,#135,.T.);
#102=FACE_OUTER_BOUND($,#136,.T.);
#103=FACE_OUTER_BOUND($,#138,.T.);
#104=EDGE_LOOP($,(#212));
#105=EDGE_LOOP($,(#213));
#106=EDGE_LOOP($,(#214));
#107=EDGE_LOOP($,(#215));
#108=EDGE_LOOP($,(#216,#217,#218,#219,#220,#221));
#109=EDGE_LOOP($,(#222));
#110=EDGE_LOOP($,(#223));
#111=EDGE_LOOP($,(#224));
#112=EDGE_LOOP($,(#225));
#113=EDGE_LOOP($,(#226));
#114=EDGE_LOOP($,(#227));
#115=EDGE_LOOP($,(#228));
#116=EDGE_LOOP($,(#229));
#117=EDGE_LOOP($,(#230));
#118=EDGE_LOOP($,(#231));
#119=EDGE_LOOP($,(#232));
#120=EDGE_LOOP($,(#233));
#121=EDGE_LOOP($,(#234));
#122=EDGE_LOOP($,(#235));
#123=EDGE_LOOP($,(#236));
#124=EDGE_LOOP($,(#237));
#125=EDGE_LOOP($,(#238));
#126=EDGE_LOOP($,(#239,#240,#241,#242));
#127=EDGE_LOOP($,(#243,#244,#245,#246));
#128=EDGE_LOOP($,(#247,#248,#249,#250));
#129=EDGE_LOOP($,(#251,#252,#253,#254));
#130=EDGE_LOOP($,(#255,#256,#257,#258));
#131=EDGE_LOOP($,(#259,#260,#261,#262));
#132=EDGE_LOOP($,(#263,#264,#265,#266,#267,#268));
#133=EDGE_LOOP($,(#269));
#134=EDGE_LOOP($,(#270));
#135=EDGE_LOOP($,(#271));
#136=EDGE_LOOP($,(#272));
#137=EDGE_LOOP($,(#273));
#138=EDGE_LOOP($,(#274));
#139=EDGE_LOOP($,(#275));
#140=CIRCLE($,#305,10.5);
#141=CIRCLE($,#306,11.);
#142=CIRCLE($,#308,11.);
#143=CIRCLE($,#311,6.);
#144=CIRCLE($,#312,5.75);
#145=CIRCLE($,#314,5.75);
#146=CIRCLE($,#316,4.15);
#147=CIRCLE($,#317,3.75);
#148=CIRCLE($,#319,3.75);
#149=CIRCLE($,#321,4.15);
#150=CIRCLE($,#323,6.);
#151=CIRCLE($,#325,5.);
#152=CIRCLE($,#326,5.);
#153=CIRCLE($,#328,3.);
#154=VERTEX_POINT($,#434);
#155=VERTEX_POINT($,#436);
#156=VERTEX_POINT($,#439);
#157=VERTEX_POINT($,#442);
#158=VERTEX_POINT($,#443);
#159=VERTEX_POINT($,#445);
#160=VERTEX_POINT($,#447);
#161=VERTEX_POINT($,#449);
#162=VERTEX_POINT($,#451);
#163=VERTEX_POINT($,#455);
#164=VERTEX_POINT($,#457);
#165=VERTEX_POINT($,#460);
#166=VERTEX_POINT($,#463);
#167=VERTEX_POINT($,#465);
#168=VERTEX_POINT($,#468);
#169=VERTEX_POINT($,#471);
#170=VERTEX_POINT($,#474);
#171=VERTEX_POINT($,#477);
#172=VERTEX_POINT($,#479);
#173=VERTEX_POINT($,#482);
#174=VERTEX_POINT($,#485);
#175=VERTEX_POINT($,#486);
#176=VERTEX_POINT($,#491);
#177=VERTEX_POINT($,#495);
#178=VERTEX_POINT($,#499);
#179=VERTEX_POINT($,#503);
#180=EDGE_CURVE($,#154,#154,#140,.T.);
#181=EDGE_CURVE($,#155,#155,#141,.T.);
#182=EDGE_CURVE($,#156,#156,#142,.T.);
#183=EDGE_CURVE($,#157,#158,#15,.T.);
#184=EDGE_CURVE($,#158,#159,#16,.T.);
#185=EDGE_CURVE($,#159,#160,#17,.T.);
#186=EDGE_CURVE($,#160,#161,#18,.T.);
#187=EDGE_CURVE($,#161,#162,#19,.T.);
#188=EDGE_CURVE($,#162,#157,#20,.T.);
#189=EDGE_CURVE($,#163,#163,#143,.T.);
#190=EDGE_CURVE($,#164,#164,#144,.T.);
#191=EDGE_CURVE($,#165,#165,#145,.T.);
#192=EDGE_CURVE($,#166,#166,#146,.T.);
#193=EDGE_CURVE($,#167,#167,#147,.T.);
#194=EDGE_CURVE($,#168,#168,#148,.T.);
#195=EDGE_CURVE($,#169,#169,#149,.T.);
#196=EDGE_CURVE($,#170,#170,#150,.T.);
#197=EDGE_CURVE($,#171,#171,#151,.T.);
#198=EDGE_CURVE($,#172,#172,#152,.T.);
#199=EDGE_CURVE($,#173,#173,#153,.T.);
#200=EDGE_CURVE($,#174,#175,#21,.T.);
#201=EDGE_CURVE($,#158,#174,#22,.T.);
#202=EDGE_CURVE($,#157,#175,#23,.T.);
#203=EDGE_CURVE($,#175,#176,#24,.T.);
#204=EDGE_CURVE($,#162,#176,#25,.T.);
#205=EDGE_CURVE($,#176,#177,#26,.T.);
#206=EDGE_CURVE($,#161,#177,#27,.T.);
#207=EDGE_CURVE($,#177,#178,#28,.T.);
#208=EDGE_CURVE($,#160,#178,#29,.T.);
#209=EDGE_CURVE($,#178,#179,#30,.T.);
#210=EDGE_CURVE($,#159,#179,#31,.T.);
#211=EDGE_CURVE($,#179,#174,#32,.T.);
#212=ORIENTED_EDGE($,*,*,#180,.T.);
#213=ORIENTED_EDGE($,*,*,#181,.T.);
#214=ORIENTED_EDGE($,*,*,#182,.F.);
#215=ORIENTED_EDGE($,*,*,#181,.F.);
#216=ORIENTED_EDGE($,*,*,#183,.T.);
#217=ORIENTED_EDGE($,*,*,#184,.T.);
#218=ORIENTED_EDGE($,*,*,#185,.T.);
#219=ORIENTED_EDGE($,*,*,#186,.T.);
#220=ORIENTED_EDGE($,*,*,#187,.T.);
#221=ORIENTED_EDGE($,*,*,#188,.T.);
#222=ORIENTED_EDGE($,*,*,#180,.F.);
#223=ORIENTED_EDGE($,*,*,#189,.F.);
#224=ORIENTED_EDGE($,*,*,#190,.T.);
#225=ORIENTED_EDGE($,*,*,#190,.F.);
#226=ORIENTED_EDGE($,*,*,#191,.T.);
#227=ORIENTED_EDGE($,*,*,#192,.F.);
#228=ORIENTED_EDGE($,*,*,#193,.T.);
#229=ORIENTED_EDGE($,*,*,#193,.F.);
#230=ORIENTED_EDGE($,*,*,#194,.T.);
#231=ORIENTED_EDGE($,*,*,#194,.F.);
#232=ORIENTED_EDGE($,*,*,#195,.T.);
#233=ORIENTED_EDGE($,*,*,#196,.F.);
#234=ORIENTED_EDGE($,*,*,#189,.T.);
#235=ORIENTED_EDGE($,*,*,#197,.F.);
#236=ORIENTED_EDGE($,*,*,#198,.T.);
#237=ORIENTED_EDGE($,*,*,#198,.F.);
#238=ORIENTED_EDGE($,*,*,#199,.F.);
#239=ORIENTED_EDGE($,*,*,#200,.F.);
#240=ORIENTED_EDGE($,*,*,#201,.F.);
#241=ORIENTED_EDGE($,*,*,#183,.F.);
#242=ORIENTED_EDGE($,*,*,#202,.T.);
#243=ORIENTED_EDGE($,*,*,#203,.F.);
#244=ORIENTED_EDGE($,*,*,#202,.F.);
#245=ORIENTED_EDGE($,*,*,#188,.F.);
#246=ORIENTED_EDGE($,*,*,#204,.T.);
#247=ORIENTED_EDGE($,*,*,#205,.F.);
#248=ORIENTED_EDGE($,*,*,#204,.F.);
#249=ORIENTED_EDGE($,*,*,#187,.F.);
#250=ORIENTED_EDGE($,*,*,#206,.T.);
#251=ORIENTED_EDGE($,*,*,#207,.F.);
#252=ORIENTED_EDGE($,*,*,#206,.F.);
#253=ORIENTED_EDGE($,*,*,#186,.F.);
#254=ORIENTED_EDGE($,*,*,#208,.T.);
#255=ORIENTED_EDGE($,*,*,#209,.F.);
#256=ORIENTED_EDGE($,*,*,#208,.F.);
#257=ORIENTED_EDGE($,*,*,#185,.F.);
#258=ORIENTED_EDGE($,*,*,#210,.T.);
#259=ORIENTED_EDGE($,*,*,#211,.F.);
#260=ORIENTED_EDGE($,*,*,#210,.F.);
#261=ORIENTED_EDGE($,*,*,#184,.F.);
#262=ORIENTED_EDGE($,*,*,#201,.T.);
#263=ORIENTED_EDGE($,*,*,#200,.T.);
#264=ORIENTED_EDGE($,*,*,#203,.T.);
#265=ORIENTED_EDGE($,*,*,#205,.T.);
#266=ORIENTED_EDGE($,*,*,#207,.T.);
#267=ORIENTED_EDGE($,*,*,#209,.T.);
#268=ORIENTED_EDGE($,*,*,#211,.T.);
#269=ORIENTED_EDGE($,*,*,#197,.T.);
#270=ORIENTED_EDGE($,*,*,#192,.T.);
#271=ORIENTED_EDGE($,*,*,#199,.T.);
#272=ORIENTED_EDGE($,*,*,#196,.T.);
#273=ORIENTED_EDGE($,*,*,#195,.F.);
#274=ORIENTED_EDGE($,*,*,#182,.T.);
#275=ORIENTED_EDGE($,*,*,#191,.F.);
#276=CONICAL_SURFACE($,#304,10.75,0.785398163397449);
#277=CONICAL_SURFACE($,#310,5.875,0.785398163397448);
#278=CONICAL_SURFACE($,#327,4.,0.785398163397448);
#279=ADVANCED_FACE($,(#83,#68),#276,.T.);
#280=ADVANCED_FACE($,(#84,#69),#63,.T.);
#281=ADVANCED_FACE($,(#70,#71),#51,.T.);
#282=ADVANCED_FACE($,(#85,#72),#277,.T.);
#283=ADVANCED_FACE($,(#86,#73),#64,.T.);
#284=ADVANCED_FACE($,(#87,#74),#13,.F.);
#285=ADVANCED_FACE($,(#88,#75),#65,.T.);
#286=ADVANCED_FACE($,(#89,#76),#14,.F.);
#287=ADVANCED_FACE($,(#90,#77),#66,.T.);
#288=ADVANCED_FACE($,(#91,#78),#67,.T.);
#289=ADVANCED_FACE($,(#92,#79),#278,.T.);
#290=ADVANCED_FACE($,(#93),#52,.F.);
#291=ADVANCED_FACE($,(#94),#53,.F.);
#292=ADVANCED_FACE($,(#95),#54,.F.);
#293=ADVANCED_FACE($,(#96),#55,.F.);
#294=ADVANCED_FACE($,(#97),#56,.F.);
#295=ADVANCED_FACE($,(#98),#57,.F.);
#296=ADVANCED_FACE($,(#99),#58,.T.);
#297=ADVANCED_FACE($,(#100,#80),#59,.T.);
#298=ADVANCED_FACE($,(#101),#60,.T.);
#299=ADVANCED_FACE($,(#102,#81),#61,.T.);
#300=ADVANCED_FACE($,(#103,#82),#62,.T.);
#301=CLOSED_SHELL($,(#279,#280,#281,#282,#283,#284,#285,#286,#287,#288,
#289,#290,#291,#292,#293,#294,#295,#296,#297,#298,#299,#300));
#302=MANIFOLD_SOLID_BREP('1',#301);
#303=AXIS2_PLACEMENT_3D('placement',#432,#340,#341);
#304=AXIS2_PLACEMENT_3D($,#433,#342,#343);
#305=AXIS2_PLACEMENT_3D($,#435,#344,#345);
#306=AXIS2_PLACEMENT_3D($,#437,#346,#347);
#307=AXIS2_PLACEMENT_3D($,#438,#348,#349);
#308=AXIS2_PLACEMENT_3D($,#440,#350,#351);
#309=AXIS2_PLACEMENT_3D($,#441,#352,#353);
#310=AXIS2_PLACEMENT_3D($,#454,#360,#361);
#311=AXIS2_PLACEMENT_3D($,#456,#362,#363);
#312=AXIS2_PLACEMENT_3D($,#458,#364,#365);
#313=AXIS2_PLACEMENT_3D($,#459,#366,#367);
#314=AXIS2_PLACEMENT_3D($,#461,#368,#369);
#315=AXIS2_PLACEMENT_3D($,#462,#370,#371);
#316=AXIS2_PLACEMENT_3D($,#464,#372,#373);
#317=AXIS2_PLACEMENT_3D($,#466,#374,#375);
#318=AXIS2_PLACEMENT_3D($,#467,#376,#377);
#319=AXIS2_PLACEMENT_3D($,#469,#378,#379);
#320=AXIS2_PLACEMENT_3D($,#470,#380,#381);
#321=AXIS2_PLACEMENT_3D($,#472,#382,#383);
#322=AXIS2_PLACEMENT_3D($,#473,#384,#385);
#323=AXIS2_PLACEMENT_3D($,#475,#386,#387);
#324=AXIS2_PLACEMENT_3D($,#476,#388,#389);
#325=AXIS2_PLACEMENT_3D($,#478,#390,#391);
#326=AXIS2_PLACEMENT_3D($,#480,#392,#393);
#327=AXIS2_PLACEMENT_3D($,#481,#394,#395);
#328=AXIS2_PLACEMENT_3D($,#483,#396,#397);
#329=AXIS2_PLACEMENT_3D($,#484,#398,#399);
#330=AXIS2_PLACEMENT_3D($,#490,#403,#404);
#331=AXIS2_PLACEMENT_3D($,#494,#407,#408);
#332=AXIS2_PLACEMENT_3D($,#498,#411,#412);
#333=AXIS2_PLACEMENT_3D($,#502,#415,#416);
#334=AXIS2_PLACEMENT_3D($,#506,#419,#420);
#335=AXIS2_PLACEMENT_3D($,#508,#422,#423);
#336=AXIS2_PLACEMENT_3D($,#509,#424,#425);
#337=AXIS2_PLACEMENT_3D($,#510,#426,#427);
#338=AXIS2_PLACEMENT_3D($,#511,#428,#429);
#339=AXIS2_PLACEMENT_3D($,#512,#430,#431);
#340=DIRECTION('axis',(0.,0.,1.));
#341=DIRECTION('refdir',(1.,0.,0.));
#342=DIRECTION('center_axis',(0.,1.,0.));
#343=DIRECTION('ref_axis',(0.,0.,1.));
#344=DIRECTION('center_axis',(0.,1.,0.));
#345=DIRECTION('ref_axis',(0.,0.,1.));
#346=DIRECTION('center_axis',(0.,-1.,0.));
#347=DIRECTION('ref_axis',(0.,0.,1.));
#348=DIRECTION('center_axis',(0.,-1.,0.));
#349=DIRECTION('ref_axis',(0.,0.,1.));
#350=DIRECTION('center_axis',(0.,1.,0.));
#351=DIRECTION('ref_axis',(0.,0.,1.));
#352=DIRECTION('center_axis',(0.,-1.,0.));
#353=DIRECTION('ref_axis',(0.,0.,-1.));
#354=DIRECTION($,(0.866025403784439,0.,-0.5));
#355=DIRECTION($,(0.,0.,-1.));
#356=DIRECTION($,(-0.866025403784439,0.,-0.5));
#357=DIRECTION($,(-0.866025403784439,0.,0.5));
#358=DIRECTION($,(0.,0.,1.));
#359=DIRECTION($,(0.866025403784439,0.,0.5));
#360=DIRECTION('center_axis',(0.,1.,0.));
#361=DIRECTION('ref_axis',(0.,0.,1.));
#362=DIRECTION('center_axis',(0.,1.,0.));
#363=DIRECTION('ref_axis',(0.,0.,1.));
#364=DIRECTION('center_axis',(0.,1.,0.));
#365=DIRECTION('ref_axis',(0.,0.,1.));
#366=DIRECTION('center_axis',(0.,-1.,0.));
#367=DIRECTION('ref_axis',(0.,0.,1.));
#368=DIRECTION('center_axis',(0.,1.,0.));
#369=DIRECTION('ref_axis',(0.,0.,1.));
#370=DIRECTION('center_axis',(0.,1.,0.));
#371=DIRECTION('ref_axis',(0.,0.,-1.));
#372=DIRECTION('center_axis',(0.,1.,0.));
#373=DIRECTION('ref_axis',(0.,0.,1.));
#374=DIRECTION('center_axis',(0.,1.,0.));
#375=DIRECTION('ref_axis',(0.,0.,1.));
#376=DIRECTION('center_axis',(0.,-1.,0.));
#377=DIRECTION('ref_axis',(0.,0.,1.));
#378=DIRECTION('center_axis',(0.,1.,0.));
#379=DIRECTION('ref_axis',(0.,0.,1.));
#380=DIRECTION('center_axis',(0.,1.,0.));
#381=DIRECTION('ref_axis',(0.,0.,-1.));
#382=DIRECTION('center_axis',(0.,1.,0.));
#383=DIRECTION('ref_axis',(0.,0.,1.));
#384=DIRECTION('center_axis',(0.,-1.,0.));
#385=DIRECTION('ref_axis',(1.,0.,0.));
#386=DIRECTION('center_axis',(0.,1.,0.));
#387=DIRECTION('ref_axis',(1.,0.,0.));
#388=DIRECTION('center_axis',(0.,1.,0.));
#389=DIRECTION('ref_axis',(1.,0.,0.));
#390=DIRECTION('center_axis',(0.,-1.,0.));
#391=DIRECTION('ref_axis',(1.,0.,0.));
#392=DIRECTION('center_axis',(0.,-1.,0.));
#393=DIRECTION('ref_axis',(1.,0.,0.));
#394=DIRECTION('center_axis',(0.,-1.,0.));
#395=DIRECTION('ref_axis',(0.,0.,1.));
#396=DIRECTION('center_axis',(0.,1.,0.));
#397=DIRECTION('ref_axis',(0.,0.,1.));
#398=DIRECTION('center_axis',(0.5,0.,0.866025403784439));
#399=DIRECTION('ref_axis',(0.866025403784439,0.,-0.5));
#400=DIRECTION($,(-0.866025403784439,0.,0.5));
#401=DIRECTION($,(0.,1.,0.));
#402=DIRECTION($,(0.,1.,0.));
#403=DIRECTION('center_axis',(-0.5,0.,0.866025403784439));
#404=DIRECTION('ref_axis',(0.866025403784439,0.,0.5));
#405=DIRECTION($,(-0.866025403784439,0.,-0.5));
#406=DIRECTION($,(0.,1.,0.));
#407=DIRECTION('center_axis',(-1.,0.,0.));
#408=DIRECTION('ref_axis',(0.,0.,1.));
#409=DIRECTION($,(0.,0.,-1.));
#410=DIRECTION($,(0.,1.,0.));
#411=DIRECTION('center_axis',(-0.5,0.,-0.866025403784439));
#412=DIRECTION('ref_axis',(-0.866025403784439,0.,0.5));
#413=DIRECTION($,(0.866025403784439,0.,-0.5));
#414=DIRECTION($,(0.,1.,0.));
#415=DIRECTION('center_axis',(0.5,0.,-0.866025403784439));
#416=DIRECTION('ref_axis',(-0.866025403784439,0.,-0.5));
#417=DIRECTION($,(0.866025403784439,0.,0.5));
#418=DIRECTION($,(0.,1.,0.));
#419=DIRECTION('center_axis',(1.,0.,0.));
#420=DIRECTION('ref_axis',(0.,0.,-1.));
#421=DIRECTION($,(0.,0.,1.));
#422=DIRECTION('center_axis',(0.,-1.,0.));
#423=DIRECTION('ref_axis',(1.,0.,0.));
#424=DIRECTION('center_axis',(0.,-1.,0.));
#425=DIRECTION('ref_axis',(1.,0.,0.));
#426=DIRECTION('center_axis',(0.,1.,0.));
#427=DIRECTION('ref_axis',(-1.,0.,0.));
#428=DIRECTION('center_axis',(0.,1.,0.));
#429=DIRECTION('ref_axis',(1.,0.,0.));
#430=DIRECTION('center_axis',(0.,1.,0.));
#431=DIRECTION('ref_axis',(0.,0.,1.));
#432=CARTESIAN_POINT('',(0.,0.,0.));
#433=CARTESIAN_POINT('Origin',(0.,0.25,0.));
#434=CARTESIAN_POINT('',(-1.28587913910472E-015,0.,-10.5));
#435=CARTESIAN_POINT('Origin',(0.,0.,0.));
#436=CARTESIAN_POINT('',(1.34711147906209E-015,0.5,-11.));
#437=CARTESIAN_POINT('Origin',(0.,0.5,0.));
#438=CARTESIAN_POINT('Origin',(0.,4.,0.));
#439=CARTESIAN_POINT('',(1.34706698920462E-015,8.,-11.));
#440=CARTESIAN_POINT('Origin',(0.,8.,0.));
#441=CARTESIAN_POINT('Origin',(0.,0.,5.5));
#442=CARTESIAN_POINT('',(0.,0.,2.88675134594813));
#443=CARTESIAN_POINT('',(2.5,0.,1.44337567297406));
#444=CARTESIAN_POINT($,(0.684215069796397,0.,2.49171959121758));
#445=CARTESIAN_POINT('',(2.5,0.,-1.44337567297406));
#446=CARTESIAN_POINT($,(2.5,0.,2.75));
#447=CARTESIAN_POINT('',(0.,0.,-2.88675134594813));
#448=CARTESIAN_POINT($,(1.8157849302036,0.,-1.83840742770461));
#449=CARTESIAN_POINT('',(-2.5,0.,-1.44337567297406));
#450=CARTESIAN_POINT($,(-3.0657849302036,0.,-1.11671959121758));
#451=CARTESIAN_POINT('',(-2.5,0.,1.44337567297406));
#452=CARTESIAN_POINT($,(-2.5,0.,3.47168783648703));
#453=CARTESIAN_POINT($,(0.565784930203603,0.,3.21340742770461));
#454=CARTESIAN_POINT('Origin',(0.,9.875,0.));
#455=CARTESIAN_POINT('',(-6.,10.,-7.34763812293426E-016));
#456=CARTESIAN_POINT('Origin',(0.,10.,0.));
#457=CARTESIAN_POINT('',(7.04148653447867E-016,9.75,-5.75));
#458=CARTESIAN_POINT('Origin',(0.,9.75,0.));
#459=CARTESIAN_POINT('Origin',(0.,8.875,0.));
#460=CARTESIAN_POINT('',(7.04148653447867E-016,8.,-5.75));
#461=CARTESIAN_POINT('Origin',(0.,8.,0.));
#462=CARTESIAN_POINT('Origin',(0.,31.4,0.));
#463=CARTESIAN_POINT('',(5.08211636836287E-016,31.8,-4.15));
#464=CARTESIAN_POINT('Origin',(0.,31.8,0.));
#465=CARTESIAN_POINT('',(4.59227382683392E-016,31.4,-3.75));
#466=CARTESIAN_POINT('Origin',(0.,31.4,0.));
#467=CARTESIAN_POINT('Origin',(0.,29.8,0.));
#468=CARTESIAN_POINT('',(4.59227382683391E-016,28.2,-3.75));
#469=CARTESIAN_POINT('Origin',(0.,28.2,0.));
#470=CARTESIAN_POINT('Origin',(0.,28.2,0.));
#471=CARTESIAN_POINT('',(5.08211636836287E-016,27.8,-4.15));
#472=CARTESIAN_POINT('Origin',(0.,27.8,0.));
#473=CARTESIAN_POINT('Origin',(0.,18.9,0.));
#474=CARTESIAN_POINT('',(-6.,27.8,-7.34763812293426E-016));
#475=CARTESIAN_POINT('Origin',(0.,27.8,0.));
#476=CARTESIAN_POINT('Origin',(0.,38.9,0.));
#477=CARTESIAN_POINT('',(-5.,31.8,6.12303176911189E-016));
#478=CARTESIAN_POINT('Origin',(0.,31.8,0.));
#479=CARTESIAN_POINT('',(6.12303176911189E-016,44.,-5.));
#480=CARTESIAN_POINT('Origin',(0.,44.,0.));
#481=CARTESIAN_POINT('Origin',(0.,45.,0.));
#482=CARTESIAN_POINT('',(3.67381906146713E-016,46.,-3.));
#483=CARTESIAN_POINT('Origin',(0.,46.,0.));
#484=CARTESIAN_POINT('Origin',(2.5,0.,1.44337567297406));
#485=CARTESIAN_POINT('',(2.5,6.,1.44337567297406));
#486=CARTESIAN_POINT('',(0.,6.,2.88675134594813));
#487=CARTESIAN_POINT($,(2.5,6.,1.44337567297406));
#488=CARTESIAN_POINT($,(2.5,0.,1.44337567297406));
#489=CARTESIAN_POINT($,(0.,0.,2.88675134594813));
#490=CARTESIAN_POINT('Origin',(0.,0.,2.88675134594813));
#491=CARTESIAN_POINT('',(-2.5,6.,1.44337567297406));
#492=CARTESIAN_POINT($,(0.,6.,2.88675134594813));
#493=CARTESIAN_POINT($,(-2.5,0.,1.44337567297406));
#494=CARTESIAN_POINT('Origin',(-2.5,0.,1.44337567297406));
#495=CARTESIAN_POINT('',(-2.5,6.,-1.44337567297406));
#496=CARTESIAN_POINT($,(-2.5,6.,1.44337567297406));
#497=CARTESIAN_POINT($,(-2.5,0.,-1.44337567297406));
#498=CARTESIAN_POINT('Origin',(-2.5,0.,-1.44337567297406));
#499=CARTESIAN_POINT('',(0.,6.,-2.88675134594813));
#500=CARTESIAN_POINT($,(-2.5,6.,-1.44337567297406));
#501=CARTESIAN_POINT($,(0.,0.,-2.88675134594813));
#502=CARTESIAN_POINT('Origin',(0.,0.,-2.88675134594813));
#503=CARTESIAN_POINT('',(2.5,6.,-1.44337567297406));
#504=CARTESIAN_POINT($,(0.,6.,-2.88675134594813));
#505=CARTESIAN_POINT($,(2.5,0.,-1.44337567297406));
#506=CARTESIAN_POINT('Origin',(2.5,0.,0.));
#507=CARTESIAN_POINT($,(2.5,6.,0.));
#508=CARTESIAN_POINT('Origin',(0.,6.,0.));
#509=CARTESIAN_POINT('Origin',(2.5,31.8,0.));
#510=CARTESIAN_POINT('Origin',(2.5,46.,0.));
#511=CARTESIAN_POINT('Origin',(0.,27.8,0.));
#512=CARTESIAN_POINT('Origin',(0.,8.,8.375));
#513=UNCERTAINTY_MEASURE_WITH_UNIT(LENGTH_MEASURE(0.01),#515,
'DISTANCE_ACCURACY_VALUE',
'Maximum model space distance between geometric entities at asserted c
onnectivities');
#514=(
GEOMETRIC_REPRESENTATION_CONTEXT(3)
GLOBAL_UNCERTAINTY_ASSIGNED_CONTEXT((#513))
GLOBAL_UNIT_ASSIGNED_CONTEXT((#515,#517,#516))
REPRESENTATION_CONTEXT('','3D')
);
#515=(
LENGTH_UNIT()
NAMED_UNIT(*)
SI_UNIT(.MILLI.,.METRE.)
);
#516=(
NAMED_UNIT(*)
SI_UNIT($,.STERADIAN.)
SOLID_ANGLE_UNIT()
);
#517=(
NAMED_UNIT(*)
PLANE_ANGLE_UNIT()
SI_UNIT($,.RADIAN.)
);
#518=SHAPE_DEFINITION_REPRESENTATION(#519,#520);
#519=PRODUCT_DEFINITION_SHAPE('',$,#522);
#520=SHAPE_REPRESENTATION('',(#303),#514);
#521=PRODUCT_DEFINITION_CONTEXT('3D Mechanical Parts',#525,'design');
#522=PRODUCT_DEFINITION('11157_KriTec_Bolzen_8_D14_zentrisch',
'11157_KriTec_Bolzen_8_D14_zentrisch',#523,#521);
#523=PRODUCT_DEFINITION_FORMATION('',$,#527);
#524=APPLICATION_PROTOCOL_DEFINITION('international standard',
'automotive_design',2009,#525);
#525=APPLICATION_CONTEXT(
'Core Data for Automotive Mechanical Design Process');
#526=PRODUCT_CONTEXT('3D Mechanical Parts',#525,'mechanical');
#527=PRODUCT('11157_KriTec_Bolzen_8_D14_zentrisch',
'11157_KriTec_Bolzen_8_D14_zentrisch',$,(#526));
#528=PRESENTATION_STYLE_ASSIGNMENT((#529));
#529=SURFACE_STYLE_USAGE(.BOTH.,#530);
#530=SURFACE_SIDE_STYLE($,(#531));
#531=SURFACE_STYLE_FILL_AREA(#532);
#532=FILL_AREA_STYLE($,(#533));
#533=FILL_AREA_STYLE_COLOUR($,#534);
#534=COLOUR_RGB('',0.501960784313725,0.501960784313725,0.501960784313725);
ENDSEC;
END-ISO-10303-21;
