ISO-10303-21;
HEADER;
/* Generated by software containing ST-Developer
 * from STEP Tools, Inc. (www.steptools.com) 
 */

FILE_DESCRIPTION(
/* description */ ('Titel eingeben'),
/* implementation_level */ '2;1');

FILE_NAME(
/* name */ 
'S:\\Bilder_neu\\11073_KriTec_Profilstab_12_St_einschwenkbar_a_1.500mm
\\Inventordateien\\11073_KriTec_Profilstab_12_St_einschwenkbar_a_1.500
mm.stp',
/* time_stamp */ '2017-03-17T14:13:10+01:00',
/* author */ ('Steiner'),
/* organization */ (''),
/* preprocessor_version */ 'ST-DEVELOPER v16.1',
/* originating_system */ 'Autodesk Inventor 2016',
/* authorisation */ '');

FILE_SCHEMA (('CONFIG_CONTROL_DESIGN'));
ENDSEC;

DATA;
#10=MECHANICAL_DESIGN_GEOMETRIC_PRESENTATION_REPRESENTATION('',(#13),#519);
#11=SHAPE_REPRESENTATION_RELATIONSHIP('SRR','None',#528,#12);
#12=ADVANCED_BREP_SHAPE_REPRESENTATION('',(#14),#518);
#13=STYLED_ITEM('',(#537),#14);
#14=MANIFOLD_SOLID_BREP('Volumenk\X\F6rper4',#299);
#15=PLANE('',#304);
#16=PLANE('',#308);
#17=PLANE('',#324);
#18=PLANE('',#328);
#19=PLANE('',#332);
#20=PLANE('',#333);
#21=PLANE('',#334);
#22=FACE_OUTER_BOUND('',#38,.T.);
#23=FACE_OUTER_BOUND('',#39,.T.);
#24=FACE_OUTER_BOUND('',#40,.T.);
#25=FACE_OUTER_BOUND('',#41,.T.);
#26=FACE_OUTER_BOUND('',#42,.T.);
#27=FACE_OUTER_BOUND('',#43,.T.);
#28=FACE_OUTER_BOUND('',#44,.T.);
#29=FACE_OUTER_BOUND('',#45,.T.);
#30=FACE_OUTER_BOUND('',#46,.T.);
#31=FACE_OUTER_BOUND('',#47,.T.);
#32=FACE_OUTER_BOUND('',#48,.T.);
#33=FACE_OUTER_BOUND('',#49,.T.);
#34=FACE_OUTER_BOUND('',#50,.T.);
#35=FACE_OUTER_BOUND('',#51,.T.);
#36=FACE_OUTER_BOUND('',#52,.T.);
#37=FACE_OUTER_BOUND('',#53,.T.);
#38=EDGE_LOOP('',(#190,#191,#192,#193));
#39=EDGE_LOOP('',(#194,#195,#196,#197));
#40=EDGE_LOOP('',(#198,#199,#200,#201));
#41=EDGE_LOOP('',(#202,#203,#204,#205));
#42=EDGE_LOOP('',(#206,#207,#208,#209));
#43=EDGE_LOOP('',(#210,#211,#212,#213));
#44=EDGE_LOOP('',(#214,#215,#216,#217));
#45=EDGE_LOOP('',(#218,#219,#220,#221));
#46=EDGE_LOOP('',(#222,#223,#224,#225));
#47=EDGE_LOOP('',(#226,#227,#228,#229));
#48=EDGE_LOOP('',(#230,#231,#232,#233));
#49=EDGE_LOOP('',(#234,#235,#236,#237));
#50=EDGE_LOOP('',(#238,#239,#240,#241));
#51=EDGE_LOOP('',(#242,#243,#244,#245));
#52=EDGE_LOOP('',(#246,#247,#248,#249,#250,#251,#252,#253,#254,#255,#256,
#257,#258,#259));
#53=EDGE_LOOP('',(#260,#261,#262,#263,#264,#265,#266,#267,#268,#269,#270,
#271,#272,#273));
#54=LINE('',#435,#78);
#55=LINE('',#438,#79);
#56=LINE('',#441,#80);
#57=LINE('',#443,#81);
#58=LINE('',#444,#82);
#59=LINE('',#450,#83);
#60=LINE('',#453,#84);
#61=LINE('',#455,#85);
#62=LINE('',#456,#86);
#63=LINE('',#462,#87);
#64=LINE('',#468,#88);
#65=LINE('',#474,#89);
#66=LINE('',#480,#90);
#67=LINE('',#486,#91);
#68=LINE('',#489,#92);
#69=LINE('',#491,#93);
#70=LINE('',#492,#94);
#71=LINE('',#498,#95);
#72=LINE('',#501,#96);
#73=LINE('',#503,#97);
#74=LINE('',#504,#98);
#75=LINE('',#510,#99);
#76=LINE('',#512,#100);
#77=LINE('',#513,#101);
#78=VECTOR('',#341,1500.);
#79=VECTOR('',#344,1500.);
#80=VECTOR('',#347,0.0999999999999999);
#81=VECTOR('',#348,0.0999999999999999);
#82=VECTOR('',#349,1500.);
#83=VECTOR('',#356,1500.);
#84=VECTOR('',#359,3.25);
#85=VECTOR('',#360,3.25);
#86=VECTOR('',#361,1500.);
#87=VECTOR('',#368,1500.);
#88=VECTOR('',#375,1500.);
#89=VECTOR('',#382,1500.);
#90=VECTOR('',#389,1500.);
#91=VECTOR('',#396,1500.);
#92=VECTOR('',#399,3.25);
#93=VECTOR('',#400,3.25);
#94=VECTOR('',#401,1500.);
#95=VECTOR('',#408,1500.);
#96=VECTOR('',#411,0.1);
#97=VECTOR('',#412,0.1);
#98=VECTOR('',#413,1500.);
#99=VECTOR('',#420,1500.);
#100=VECTOR('',#423,12.);
#101=VECTOR('',#424,12.);
#102=CIRCLE('',#302,0.300000000000002);
#103=CIRCLE('',#303,0.300000000000002);
#104=CIRCLE('',#306,0.300000000000002);
#105=CIRCLE('',#307,0.300000000000002);
#106=CIRCLE('',#310,0.299999999139265);
#107=CIRCLE('',#311,0.299999999139265);
#108=CIRCLE('',#313,22.3636026033611);
#109=CIRCLE('',#314,22.3636026033611);
#110=CIRCLE('',#316,5.84999999950924);
#111=CIRCLE('',#317,5.84999999950924);
#112=CIRCLE('',#319,22.3636026028282);
#113=CIRCLE('',#320,22.3636026028282);
#114=CIRCLE('',#322,0.3);
#115=CIRCLE('',#323,0.3);
#116=CIRCLE('',#326,0.299999999999999);
#117=CIRCLE('',#327,0.299999999999999);
#118=CIRCLE('',#330,0.3);
#119=CIRCLE('',#331,0.3);
#120=VERTEX_POINT('',#431);
#121=VERTEX_POINT('',#432);
#122=VERTEX_POINT('',#434);
#123=VERTEX_POINT('',#436);
#124=VERTEX_POINT('',#440);
#125=VERTEX_POINT('',#442);
#126=VERTEX_POINT('',#446);
#127=VERTEX_POINT('',#448);
#128=VERTEX_POINT('',#452);
#129=VERTEX_POINT('',#454);
#130=VERTEX_POINT('',#458);
#131=VERTEX_POINT('',#460);
#132=VERTEX_POINT('',#464);
#133=VERTEX_POINT('',#466);
#134=VERTEX_POINT('',#470);
#135=VERTEX_POINT('',#472);
#136=VERTEX_POINT('',#476);
#137=VERTEX_POINT('',#478);
#138=VERTEX_POINT('',#482);
#139=VERTEX_POINT('',#484);
#140=VERTEX_POINT('',#488);
#141=VERTEX_POINT('',#490);
#142=VERTEX_POINT('',#494);
#143=VERTEX_POINT('',#496);
#144=VERTEX_POINT('',#500);
#145=VERTEX_POINT('',#502);
#146=VERTEX_POINT('',#506);
#147=VERTEX_POINT('',#508);
#148=EDGE_CURVE('',#120,#121,#102,.T.);
#149=EDGE_CURVE('',#121,#122,#54,.T.);
#150=EDGE_CURVE('',#123,#122,#103,.T.);
#151=EDGE_CURVE('',#120,#123,#55,.T.);
#152=EDGE_CURVE('',#124,#120,#56,.T.);
#153=EDGE_CURVE('',#125,#123,#57,.T.);
#154=EDGE_CURVE('',#124,#125,#58,.T.);
#155=EDGE_CURVE('',#126,#124,#104,.T.);
#156=EDGE_CURVE('',#127,#125,#105,.T.);
#157=EDGE_CURVE('',#126,#127,#59,.T.);
#158=EDGE_CURVE('',#128,#126,#60,.T.);
#159=EDGE_CURVE('',#129,#127,#61,.T.);
#160=EDGE_CURVE('',#128,#129,#62,.T.);
#161=EDGE_CURVE('',#130,#128,#106,.T.);
#162=EDGE_CURVE('',#131,#129,#107,.T.);
#163=EDGE_CURVE('',#130,#131,#63,.T.);
#164=EDGE_CURVE('',#132,#130,#108,.T.);
#165=EDGE_CURVE('',#133,#131,#109,.T.);
#166=EDGE_CURVE('',#132,#133,#64,.T.);
#167=EDGE_CURVE('',#134,#132,#110,.T.);
#168=EDGE_CURVE('',#135,#133,#111,.T.);
#169=EDGE_CURVE('',#134,#135,#65,.T.);
#170=EDGE_CURVE('',#136,#134,#112,.T.);
#171=EDGE_CURVE('',#137,#135,#113,.T.);
#172=EDGE_CURVE('',#136,#137,#66,.T.);
#173=EDGE_CURVE('',#138,#136,#114,.T.);
#174=EDGE_CURVE('',#139,#137,#115,.T.);
#175=EDGE_CURVE('',#138,#139,#67,.T.);
#176=EDGE_CURVE('',#140,#138,#68,.T.);
#177=EDGE_CURVE('',#141,#139,#69,.T.);
#178=EDGE_CURVE('',#140,#141,#70,.T.);
#179=EDGE_CURVE('',#142,#140,#116,.T.);
#180=EDGE_CURVE('',#143,#141,#117,.T.);
#181=EDGE_CURVE('',#142,#143,#71,.T.);
#182=EDGE_CURVE('',#144,#142,#72,.T.);
#183=EDGE_CURVE('',#145,#143,#73,.T.);
#184=EDGE_CURVE('',#144,#145,#74,.T.);
#185=EDGE_CURVE('',#146,#144,#118,.T.);
#186=EDGE_CURVE('',#147,#145,#119,.T.);
#187=EDGE_CURVE('',#146,#147,#75,.T.);
#188=EDGE_CURVE('',#121,#146,#76,.T.);
#189=EDGE_CURVE('',#122,#147,#77,.T.);
#190=ORIENTED_EDGE('',*,*,#148,.T.);
#191=ORIENTED_EDGE('',*,*,#149,.T.);
#192=ORIENTED_EDGE('',*,*,#150,.F.);
#193=ORIENTED_EDGE('',*,*,#151,.F.);
#194=ORIENTED_EDGE('',*,*,#152,.T.);
#195=ORIENTED_EDGE('',*,*,#151,.T.);
#196=ORIENTED_EDGE('',*,*,#153,.F.);
#197=ORIENTED_EDGE('',*,*,#154,.F.);
#198=ORIENTED_EDGE('',*,*,#155,.T.);
#199=ORIENTED_EDGE('',*,*,#154,.T.);
#200=ORIENTED_EDGE('',*,*,#156,.F.);
#201=ORIENTED_EDGE('',*,*,#157,.F.);
#202=ORIENTED_EDGE('',*,*,#158,.T.);
#203=ORIENTED_EDGE('',*,*,#157,.T.);
#204=ORIENTED_EDGE('',*,*,#159,.F.);
#205=ORIENTED_EDGE('',*,*,#160,.F.);
#206=ORIENTED_EDGE('',*,*,#161,.T.);
#207=ORIENTED_EDGE('',*,*,#160,.T.);
#208=ORIENTED_EDGE('',*,*,#162,.F.);
#209=ORIENTED_EDGE('',*,*,#163,.F.);
#210=ORIENTED_EDGE('',*,*,#164,.T.);
#211=ORIENTED_EDGE('',*,*,#163,.T.);
#212=ORIENTED_EDGE('',*,*,#165,.F.);
#213=ORIENTED_EDGE('',*,*,#166,.F.);
#214=ORIENTED_EDGE('',*,*,#167,.T.);
#215=ORIENTED_EDGE('',*,*,#166,.T.);
#216=ORIENTED_EDGE('',*,*,#168,.F.);
#217=ORIENTED_EDGE('',*,*,#169,.F.);
#218=ORIENTED_EDGE('',*,*,#170,.T.);
#219=ORIENTED_EDGE('',*,*,#169,.T.);
#220=ORIENTED_EDGE('',*,*,#171,.F.);
#221=ORIENTED_EDGE('',*,*,#172,.F.);
#222=ORIENTED_EDGE('',*,*,#173,.T.);
#223=ORIENTED_EDGE('',*,*,#172,.T.);
#224=ORIENTED_EDGE('',*,*,#174,.F.);
#225=ORIENTED_EDGE('',*,*,#175,.F.);
#226=ORIENTED_EDGE('',*,*,#176,.T.);
#227=ORIENTED_EDGE('',*,*,#175,.T.);
#228=ORIENTED_EDGE('',*,*,#177,.F.);
#229=ORIENTED_EDGE('',*,*,#178,.F.);
#230=ORIENTED_EDGE('',*,*,#179,.T.);
#231=ORIENTED_EDGE('',*,*,#178,.T.);
#232=ORIENTED_EDGE('',*,*,#180,.F.);
#233=ORIENTED_EDGE('',*,*,#181,.F.);
#234=ORIENTED_EDGE('',*,*,#182,.T.);
#235=ORIENTED_EDGE('',*,*,#181,.T.);
#236=ORIENTED_EDGE('',*,*,#183,.F.);
#237=ORIENTED_EDGE('',*,*,#184,.F.);
#238=ORIENTED_EDGE('',*,*,#185,.T.);
#239=ORIENTED_EDGE('',*,*,#184,.T.);
#240=ORIENTED_EDGE('',*,*,#186,.F.);
#241=ORIENTED_EDGE('',*,*,#187,.F.);
#242=ORIENTED_EDGE('',*,*,#188,.T.);
#243=ORIENTED_EDGE('',*,*,#187,.T.);
#244=ORIENTED_EDGE('',*,*,#189,.F.);
#245=ORIENTED_EDGE('',*,*,#149,.F.);
#246=ORIENTED_EDGE('',*,*,#189,.T.);
#247=ORIENTED_EDGE('',*,*,#186,.T.);
#248=ORIENTED_EDGE('',*,*,#183,.T.);
#249=ORIENTED_EDGE('',*,*,#180,.T.);
#250=ORIENTED_EDGE('',*,*,#177,.T.);
#251=ORIENTED_EDGE('',*,*,#174,.T.);
#252=ORIENTED_EDGE('',*,*,#171,.T.);
#253=ORIENTED_EDGE('',*,*,#168,.T.);
#254=ORIENTED_EDGE('',*,*,#165,.T.);
#255=ORIENTED_EDGE('',*,*,#162,.T.);
#256=ORIENTED_EDGE('',*,*,#159,.T.);
#257=ORIENTED_EDGE('',*,*,#156,.T.);
#258=ORIENTED_EDGE('',*,*,#153,.T.);
#259=ORIENTED_EDGE('',*,*,#150,.T.);
#260=ORIENTED_EDGE('',*,*,#188,.F.);
#261=ORIENTED_EDGE('',*,*,#148,.F.);
#262=ORIENTED_EDGE('',*,*,#152,.F.);
#263=ORIENTED_EDGE('',*,*,#155,.F.);
#264=ORIENTED_EDGE('',*,*,#158,.F.);
#265=ORIENTED_EDGE('',*,*,#161,.F.);
#266=ORIENTED_EDGE('',*,*,#164,.F.);
#267=ORIENTED_EDGE('',*,*,#167,.F.);
#268=ORIENTED_EDGE('',*,*,#170,.F.);
#269=ORIENTED_EDGE('',*,*,#173,.F.);
#270=ORIENTED_EDGE('',*,*,#176,.F.);
#271=ORIENTED_EDGE('',*,*,#179,.F.);
#272=ORIENTED_EDGE('',*,*,#182,.F.);
#273=ORIENTED_EDGE('',*,*,#185,.F.);
#274=CYLINDRICAL_SURFACE('',#301,0.300000000000002);
#275=CYLINDRICAL_SURFACE('',#305,0.300000000000002);
#276=CYLINDRICAL_SURFACE('',#309,0.299999999139265);
#277=CYLINDRICAL_SURFACE('',#312,22.3636026033611);
#278=CYLINDRICAL_SURFACE('',#315,5.84999999950924);
#279=CYLINDRICAL_SURFACE('',#318,22.3636026028282);
#280=CYLINDRICAL_SURFACE('',#321,0.3);
#281=CYLINDRICAL_SURFACE('',#325,0.299999999999999);
#282=CYLINDRICAL_SURFACE('',#329,0.3);
#283=ADVANCED_FACE('',(#22),#274,.T.);
#284=ADVANCED_FACE('',(#23),#15,.T.);
#285=ADVANCED_FACE('',(#24),#275,.F.);
#286=ADVANCED_FACE('',(#25),#16,.T.);
#287=ADVANCED_FACE('',(#26),#276,.T.);
#288=ADVANCED_FACE('',(#27),#277,.T.);
#289=ADVANCED_FACE('',(#28),#278,.T.);
#290=ADVANCED_FACE('',(#29),#279,.T.);
#291=ADVANCED_FACE('',(#30),#280,.T.);
#292=ADVANCED_FACE('',(#31),#17,.T.);
#293=ADVANCED_FACE('',(#32),#281,.F.);
#294=ADVANCED_FACE('',(#33),#18,.T.);
#295=ADVANCED_FACE('',(#34),#282,.T.);
#296=ADVANCED_FACE('',(#35),#19,.T.);
#297=ADVANCED_FACE('',(#36),#20,.T.);
#298=ADVANCED_FACE('',(#37),#21,.F.);
#299=CLOSED_SHELL('',(#283,#284,#285,#286,#287,#288,#289,#290,#291,#292,
#293,#294,#295,#296,#297,#298));
#300=AXIS2_PLACEMENT_3D('placement',#429,#335,#336);
#301=AXIS2_PLACEMENT_3D('',#430,#337,#338);
#302=AXIS2_PLACEMENT_3D('',#433,#339,#340);
#303=AXIS2_PLACEMENT_3D('',#437,#342,#343);
#304=AXIS2_PLACEMENT_3D('',#439,#345,#346);
#305=AXIS2_PLACEMENT_3D('',#445,#350,#351);
#306=AXIS2_PLACEMENT_3D('',#447,#352,#353);
#307=AXIS2_PLACEMENT_3D('',#449,#354,#355);
#308=AXIS2_PLACEMENT_3D('',#451,#357,#358);
#309=AXIS2_PLACEMENT_3D('',#457,#362,#363);
#310=AXIS2_PLACEMENT_3D('',#459,#364,#365);
#311=AXIS2_PLACEMENT_3D('',#461,#366,#367);
#312=AXIS2_PLACEMENT_3D('',#463,#369,#370);
#313=AXIS2_PLACEMENT_3D('',#465,#371,#372);
#314=AXIS2_PLACEMENT_3D('',#467,#373,#374);
#315=AXIS2_PLACEMENT_3D('',#469,#376,#377);
#316=AXIS2_PLACEMENT_3D('',#471,#378,#379);
#317=AXIS2_PLACEMENT_3D('',#473,#380,#381);
#318=AXIS2_PLACEMENT_3D('',#475,#383,#384);
#319=AXIS2_PLACEMENT_3D('',#477,#385,#386);
#320=AXIS2_PLACEMENT_3D('',#479,#387,#388);
#321=AXIS2_PLACEMENT_3D('',#481,#390,#391);
#322=AXIS2_PLACEMENT_3D('',#483,#392,#393);
#323=AXIS2_PLACEMENT_3D('',#485,#394,#395);
#324=AXIS2_PLACEMENT_3D('',#487,#397,#398);
#325=AXIS2_PLACEMENT_3D('',#493,#402,#403);
#326=AXIS2_PLACEMENT_3D('',#495,#404,#405);
#327=AXIS2_PLACEMENT_3D('',#497,#406,#407);
#328=AXIS2_PLACEMENT_3D('',#499,#409,#410);
#329=AXIS2_PLACEMENT_3D('',#505,#414,#415);
#330=AXIS2_PLACEMENT_3D('',#507,#416,#417);
#331=AXIS2_PLACEMENT_3D('',#509,#418,#419);
#332=AXIS2_PLACEMENT_3D('',#511,#421,#422);
#333=AXIS2_PLACEMENT_3D('',#514,#425,#426);
#334=AXIS2_PLACEMENT_3D('',#515,#427,#428);
#335=DIRECTION('axis',(0.,0.,1.));
#336=DIRECTION('refdir',(1.,0.,0.));
#337=DIRECTION('center_axis',(0.,0.,1.));
#338=DIRECTION('ref_axis',(1.,3.23815048849006E-15,0.));
#339=DIRECTION('center_axis',(0.,0.,1.));
#340=DIRECTION('ref_axis',(1.,3.23815048849006E-15,0.));
#341=DIRECTION('',(0.,0.,1.));
#342=DIRECTION('center_axis',(0.,0.,1.));
#343=DIRECTION('ref_axis',(1.,3.23815048849006E-15,0.));
#344=DIRECTION('',(0.,0.,1.));
#345=DIRECTION('center_axis',(1.,0.,0.));
#346=DIRECTION('ref_axis',(0.,1.,0.));
#347=DIRECTION('',(0.,1.,0.));
#348=DIRECTION('',(0.,1.,0.));
#349=DIRECTION('',(0.,0.,1.));
#350=DIRECTION('center_axis',(0.,0.,1.));
#351=DIRECTION('ref_axis',(1.,6.47630097698003E-15,0.));
#352=DIRECTION('center_axis',(0.,0.,-1.));
#353=DIRECTION('ref_axis',(1.,6.47630097698003E-15,0.));
#354=DIRECTION('center_axis',(0.,0.,-1.));
#355=DIRECTION('ref_axis',(1.,6.47630097698003E-15,0.));
#356=DIRECTION('',(0.,0.,1.));
#357=DIRECTION('center_axis',(2.64840841564999E-10,1.,0.));
#358=DIRECTION('ref_axis',(-1.,2.64840838148928E-10,0.));
#359=DIRECTION('',(-1.,2.64840841564999E-10,0.));
#360=DIRECTION('',(-1.,2.64840841564999E-10,0.));
#361=DIRECTION('',(0.,0.,1.));
#362=DIRECTION('center_axis',(0.,0.,1.));
#363=DIRECTION('ref_axis',(0.91984530264977,-0.392281301100566,0.));
#364=DIRECTION('center_axis',(0.,0.,1.));
#365=DIRECTION('ref_axis',(0.91984530264977,-0.392281301100566,0.));
#366=DIRECTION('center_axis',(0.,0.,1.));
#367=DIRECTION('ref_axis',(0.91984530264977,-0.392281301100566,0.));
#368=DIRECTION('',(0.,0.,1.));
#369=DIRECTION('center_axis',(0.,0.,1.));
#370=DIRECTION('ref_axis',(0.629521262279507,-0.77698325615036,0.));
#371=DIRECTION('center_axis',(0.,0.,1.));
#372=DIRECTION('ref_axis',(0.629521262279507,-0.77698325615036,0.));
#373=DIRECTION('center_axis',(0.,0.,1.));
#374=DIRECTION('ref_axis',(0.629521262279507,-0.77698325615036,0.));
#375=DIRECTION('',(0.,0.,1.));
#376=DIRECTION('center_axis',(0.,0.,1.));
#377=DIRECTION('ref_axis',(-0.598574593209751,-0.801067073573606,0.));
#378=DIRECTION('center_axis',(0.,0.,1.));
#379=DIRECTION('ref_axis',(-0.598574593209751,-0.801067073573606,0.));
#380=DIRECTION('center_axis',(0.,0.,1.));
#381=DIRECTION('ref_axis',(-0.598574593209751,-0.801067073573606,0.));
#382=DIRECTION('',(0.,0.,1.));
#383=DIRECTION('center_axis',(0.,0.,1.));
#384=DIRECTION('ref_axis',(-0.925729898159466,-0.378185345635794,0.));
#385=DIRECTION('center_axis',(0.,0.,1.));
#386=DIRECTION('ref_axis',(-0.925729898159466,-0.378185345635794,0.));
#387=DIRECTION('center_axis',(0.,0.,1.));
#388=DIRECTION('ref_axis',(-0.925729898159466,-0.378185345635794,0.));
#389=DIRECTION('',(0.,0.,1.));
#390=DIRECTION('center_axis',(0.,0.,1.));
#391=DIRECTION('ref_axis',(0.,1.,0.));
#392=DIRECTION('center_axis',(0.,0.,1.));
#393=DIRECTION('ref_axis',(0.,1.,0.));
#394=DIRECTION('center_axis',(0.,0.,1.));
#395=DIRECTION('ref_axis',(0.,1.,0.));
#396=DIRECTION('',(0.,0.,1.));
#397=DIRECTION('center_axis',(-8.54017711250121E-17,1.,0.));
#398=DIRECTION('ref_axis',(-1.,-8.88178419700125E-17,0.));
#399=DIRECTION('',(-1.,-8.54017711250121E-17,0.));
#400=DIRECTION('',(-1.,-8.54017711250121E-17,0.));
#401=DIRECTION('',(0.,0.,1.));
#402=DIRECTION('center_axis',(0.,0.,1.));
#403=DIRECTION('ref_axis',(0.,1.,0.));
#404=DIRECTION('center_axis',(0.,0.,-1.));
#405=DIRECTION('ref_axis',(0.,1.,0.));
#406=DIRECTION('center_axis',(0.,0.,-1.));
#407=DIRECTION('ref_axis',(0.,1.,0.));
#408=DIRECTION('',(0.,0.,1.));
#409=DIRECTION('center_axis',(-1.,0.,0.));
#410=DIRECTION('ref_axis',(0.,-1.,0.));
#411=DIRECTION('',(0.,-1.,0.));
#412=DIRECTION('',(0.,-1.,0.));
#413=DIRECTION('',(0.,0.,1.));
#414=DIRECTION('center_axis',(0.,0.,1.));
#415=DIRECTION('ref_axis',(0.,1.,0.));
#416=DIRECTION('center_axis',(0.,0.,1.));
#417=DIRECTION('ref_axis',(0.,1.,0.));
#418=DIRECTION('center_axis',(0.,0.,1.));
#419=DIRECTION('ref_axis',(0.,1.,0.));
#420=DIRECTION('',(0.,0.,1.));
#421=DIRECTION('center_axis',(0.,1.,0.));
#422=DIRECTION('ref_axis',(-1.,0.,0.));
#423=DIRECTION('',(-1.,0.,0.));
#424=DIRECTION('',(-1.,0.,0.));
#425=DIRECTION('center_axis',(0.,0.,1.));
#426=DIRECTION('ref_axis',(1.,0.,0.));
#427=DIRECTION('center_axis',(0.,0.,1.));
#428=DIRECTION('ref_axis',(1.,0.,0.));
#429=CARTESIAN_POINT('',(0.,0.,0.));
#430=CARTESIAN_POINT('Origin',(12.,-0.300000000000001,0.));
#431=CARTESIAN_POINT('',(12.3,-0.3,0.));
#432=CARTESIAN_POINT('',(12.,0.,0.));
#433=CARTESIAN_POINT('Origin',(12.,-0.300000000000001,0.));
#434=CARTESIAN_POINT('',(12.,0.,1500.));
#435=CARTESIAN_POINT('',(12.,0.,0.));
#436=CARTESIAN_POINT('',(12.3,-0.3,1500.));
#437=CARTESIAN_POINT('Origin',(12.,-0.300000000000001,1500.));
#438=CARTESIAN_POINT('',(12.3,-0.3,0.));
#439=CARTESIAN_POINT('Origin',(12.3,-0.4,0.));
#440=CARTESIAN_POINT('',(12.3,-0.4,0.));
#441=CARTESIAN_POINT('',(12.3,-0.4,0.));
#442=CARTESIAN_POINT('',(12.3,-0.4,1500.));
#443=CARTESIAN_POINT('',(12.3,-0.4,1500.));
#444=CARTESIAN_POINT('',(12.3,-0.4,0.));
#445=CARTESIAN_POINT('Origin',(12.6,-0.399999999999998,0.));
#446=CARTESIAN_POINT('',(12.6,-0.7,0.));
#447=CARTESIAN_POINT('Origin',(12.6,-0.399999999999998,0.));
#448=CARTESIAN_POINT('',(12.6,-0.7,1500.));
#449=CARTESIAN_POINT('Origin',(12.6,-0.399999999999998,1500.));
#450=CARTESIAN_POINT('',(12.6,-0.7,0.));
#451=CARTESIAN_POINT('Origin',(15.85,-0.700000000860733,0.));
#452=CARTESIAN_POINT('',(15.85,-0.700000000860733,0.));
#453=CARTESIAN_POINT('',(15.85,-0.700000000860733,0.));
#454=CARTESIAN_POINT('',(15.85,-0.700000000860733,1500.));
#455=CARTESIAN_POINT('',(15.85,-0.700000000860733,1500.));
#456=CARTESIAN_POINT('',(15.85,-0.700000000860733,0.));
#457=CARTESIAN_POINT('Origin',(15.85,-0.999999999999998,0.));
#458=CARTESIAN_POINT('',(16.1259535904931,-1.11768439020145,0.));
#459=CARTESIAN_POINT('Origin',(15.85,-0.999999999999998,0.));
#460=CARTESIAN_POINT('',(16.1259535904931,-1.11768439020145,1500.));
#461=CARTESIAN_POINT('Origin',(15.85,-0.999999999999998,1500.));
#462=CARTESIAN_POINT('',(16.1259535904931,-1.11768439020145,0.));
#463=CARTESIAN_POINT('Origin',(-4.5767019700001,7.33990239000006,0.));
#464=CARTESIAN_POINT('',(9.50166137029374,-10.0362423803931,0.));
#465=CARTESIAN_POINT('Origin',(-4.5767019700001,7.33990239000006,0.));
#466=CARTESIAN_POINT('',(9.50166137029374,-10.0362423803931,1500.));
#467=CARTESIAN_POINT('Origin',(-4.5767019700001,7.33990239000006,1500.));
#468=CARTESIAN_POINT('',(9.50166137029374,-10.0362423803931,0.));
#469=CARTESIAN_POINT('Origin',(5.99999999999999,-5.35000000000002,0.));
#470=CARTESIAN_POINT('',(2.49833863033531,-10.0362423795861,0.));
#471=CARTESIAN_POINT('Origin',(5.99999999999999,-5.35000000000002,0.));
#472=CARTESIAN_POINT('',(2.49833863033531,-10.0362423795861,1500.));
#473=CARTESIAN_POINT('Origin',(5.99999999999999,-5.35000000000002,1500.));
#474=CARTESIAN_POINT('',(2.49833863033531,-10.0362423795861,0.));
#475=CARTESIAN_POINT('Origin',(16.5767019699999,7.33990238999993,0.));
#476=CARTESIAN_POINT('',(-4.1259535907917,-1.11768439033765,0.));
#477=CARTESIAN_POINT('Origin',(16.5767019699999,7.33990238999993,0.));
#478=CARTESIAN_POINT('',(-4.1259535907917,-1.11768439033765,1500.));
#479=CARTESIAN_POINT('Origin',(16.5767019699999,7.33990238999993,1500.));
#480=CARTESIAN_POINT('',(-4.1259535907917,-1.11768439033765,0.));
#481=CARTESIAN_POINT('Origin',(-3.85,-1.,0.));
#482=CARTESIAN_POINT('',(-3.85,-0.7,0.));
#483=CARTESIAN_POINT('Origin',(-3.85,-1.,0.));
#484=CARTESIAN_POINT('',(-3.85,-0.7,1500.));
#485=CARTESIAN_POINT('Origin',(-3.85,-1.,1500.));
#486=CARTESIAN_POINT('',(-3.85,-0.7,0.));
#487=CARTESIAN_POINT('Origin',(-0.599999999999999,-0.7,0.));
#488=CARTESIAN_POINT('',(-0.599999999999999,-0.7,0.));
#489=CARTESIAN_POINT('',(-0.599999999999999,-0.7,0.));
#490=CARTESIAN_POINT('',(-0.600000000000001,-0.7,1500.));
#491=CARTESIAN_POINT('',(-0.599999999999999,-0.7,1500.));
#492=CARTESIAN_POINT('',(-0.599999999999999,-0.7,0.));
#493=CARTESIAN_POINT('Origin',(-0.599999999999999,-0.4,0.));
#494=CARTESIAN_POINT('',(-0.299999999999999,-0.4,0.));
#495=CARTESIAN_POINT('Origin',(-0.599999999999999,-0.4,0.));
#496=CARTESIAN_POINT('',(-0.299999999999998,-0.4,1500.));
#497=CARTESIAN_POINT('Origin',(-0.599999999999999,-0.4,1500.));
#498=CARTESIAN_POINT('',(-0.299999999999999,-0.4,0.));
#499=CARTESIAN_POINT('Origin',(-0.299999999999999,-0.3,0.));
#500=CARTESIAN_POINT('',(-0.299999999999999,-0.3,0.));
#501=CARTESIAN_POINT('',(-0.299999999999999,-0.3,0.));
#502=CARTESIAN_POINT('',(-0.299999999999998,-0.3,1500.));
#503=CARTESIAN_POINT('',(-0.299999999999999,-0.3,1500.));
#504=CARTESIAN_POINT('',(-0.299999999999999,-0.3,0.));
#505=CARTESIAN_POINT('Origin',(0.,-0.3,0.));
#506=CARTESIAN_POINT('',(0.,0.,0.));
#507=CARTESIAN_POINT('Origin',(0.,-0.3,0.));
#508=CARTESIAN_POINT('',(0.,0.,1500.));
#509=CARTESIAN_POINT('Origin',(0.,-0.3,1500.));
#510=CARTESIAN_POINT('',(0.,0.,0.));
#511=CARTESIAN_POINT('Origin',(12.,0.,0.));
#512=CARTESIAN_POINT('',(12.,0.,0.));
#513=CARTESIAN_POINT('',(12.,0.,1500.));
#514=CARTESIAN_POINT('Origin',(5.9999999998173,-3.80318724055032,1500.));
#515=CARTESIAN_POINT('Origin',(5.9999999998173,-3.80318724055032,0.));
#516=UNCERTAINTY_MEASURE_WITH_UNIT(LENGTH_MEASURE(0.01),#520,
'DISTANCE_ACCURACY_VALUE',
'Maximum model space distance between geometric entities at asserted c
onnectivities');
#517=UNCERTAINTY_MEASURE_WITH_UNIT(LENGTH_MEASURE(1.E-6),#520,
'DISTANCE_ACCURACY_VALUE',
'Maximum model space distance between geometric entities at asserted c
onnectivities');
#518=(
GEOMETRIC_REPRESENTATION_CONTEXT(3)
GLOBAL_UNCERTAINTY_ASSIGNED_CONTEXT((#516))
GLOBAL_UNIT_ASSIGNED_CONTEXT((#520,#523,#521))
REPRESENTATION_CONTEXT('','3D')
);
#519=(
GEOMETRIC_REPRESENTATION_CONTEXT(3)
GLOBAL_UNCERTAINTY_ASSIGNED_CONTEXT((#517))
GLOBAL_UNIT_ASSIGNED_CONTEXT((#520,#523,#521))
REPRESENTATION_CONTEXT('','3D')
);
#520=(
LENGTH_UNIT()
NAMED_UNIT(*)
SI_UNIT(.MILLI.,.METRE.)
);
#521=(
NAMED_UNIT(*)
SI_UNIT($,.STERADIAN.)
SOLID_ANGLE_UNIT()
);
#522=DIMENSIONAL_EXPONENTS(0.,0.,0.,0.,0.,0.,0.);
#523=(
CONVERSION_BASED_UNIT('degree',#525)
NAMED_UNIT(#522)
PLANE_ANGLE_UNIT()
);
#524=(
NAMED_UNIT(*)
PLANE_ANGLE_UNIT()
SI_UNIT($,.RADIAN.)
);
#525=PLANE_ANGLE_MEASURE_WITH_UNIT(PLANE_ANGLE_MEASURE(0.01745329252),#524);
#526=SHAPE_DEFINITION_REPRESENTATION(#527,#528);
#527=PRODUCT_DEFINITION_SHAPE('',$,#530);
#528=SHAPE_REPRESENTATION('',(#300),#518);
#529=DESIGN_CONTEXT('part definition',#534,'design');
#530=PRODUCT_DEFINITION(
'11073_KriTec_Profilstab_12_St_einschwenkbar_a_1.500mm',
'11073_KriTec_Profilstab_12_St_einschwenkbar_a_1.500mm',#531,#529);
#531=PRODUCT_DEFINITION_FORMATION('','00',#536);
#532=PRODUCT_RELATED_PRODUCT_CATEGORY(
'11073_KriTec_Profilstab_12_St_einschwenkbar_a_1.500mm',
'11073_KriTec_Profilstab_12_St_einschwenkbar_a_1.500mm',(#536));
#533=APPLICATION_PROTOCOL_DEFINITION('international standard',
'ap203_configuration_controlled_3d_design_of_mechanical_parts_and_asse
mblies_mim_lf',2004,#534);
#534=APPLICATION_CONTEXT(
'Configuration Controlled 3D Design of Mechanical Parts and Assemblies');
#535=MECHANICAL_CONTEXT('part definition',#534,'mechanical');
#536=PRODUCT('11073_KriTec_Profilstab_12_St_einschwenkbar_a_1.500mm',
'11073_KriTec_Profilstab_12_St_einschwenkbar_a_1.500mm',$,(#535));
#537=PRESENTATION_STYLE_ASSIGNMENT((#538));
#538=SURFACE_STYLE_USAGE(.BOTH.,#539);
#539=SURFACE_SIDE_STYLE('',(#540));
#540=SURFACE_STYLE_FILL_AREA(#541);
#541=FILL_AREA_STYLE('',(#542));
#542=FILL_AREA_STYLE_COLOUR('',#543);
#543=COLOUR_RGB('',0.996078431372549,0.996078431372549,1.);
ENDSEC;
END-ISO-10303-21;
