ISO-10303-21;
HEADER;
/* Generated by software containing ST-Developer
 * from STEP Tools, Inc. (www.steptools.com) 
 */

FILE_DESCRIPTION(
/* description */ (''),
/* implementation_level */ '2;1');

FILE_NAME(
/* name */ 
'S:\\Bilder_neu\\11056_KriTec_Profilstab_8_St_schwer_mit_Steg_500mm\\I
nventordateien\\11056_KriTec_Profilstab_8_St_schwer_mit_Steg_500mm.stp',

/* time_stamp */ '2017-08-17T13:20:11+02:00',
/* author */ ('kostic'),
/* organization */ (''),
/* preprocessor_version */ 'ST-DEVELOPER v15.2',
/* originating_system */ 'Autodesk Inventor 2014',
/* authorisation */ '');

FILE_SCHEMA (('CONFIG_CONTROL_DESIGN'));
ENDSEC;

DATA;
#10=MECHANICAL_DESIGN_GEOMETRIC_PRESENTATION_REPRESENTATION('',(#14,#13),
#370);
#11=SHAPE_REPRESENTATION_RELATIONSHIP('SRR','None',#379,#12);
#12=ADVANCED_BREP_SHAPE_REPRESENTATION($,(#234),#369);
#13=STYLED_ITEM('',(#389),#232);
#14=STYLED_ITEM('',(#388),#234);
#15=FACE_OUTER_BOUND('',#27,.T.);
#16=FACE_OUTER_BOUND('',#28,.T.);
#17=FACE_OUTER_BOUND('',#29,.T.);
#18=FACE_OUTER_BOUND('',#30,.T.);
#19=FACE_OUTER_BOUND('',#31,.T.);
#20=FACE_OUTER_BOUND('',#32,.T.);
#21=FACE_OUTER_BOUND('',#33,.T.);
#22=FACE_OUTER_BOUND('',#34,.T.);
#23=FACE_OUTER_BOUND('',#35,.T.);
#24=FACE_OUTER_BOUND('',#36,.T.);
#25=FACE_OUTER_BOUND('',#37,.T.);
#26=FACE_OUTER_BOUND('',#38,.T.);
#27=EDGE_LOOP('',(#149,#150,#151,#152));
#28=EDGE_LOOP('',(#153,#154,#155,#156));
#29=EDGE_LOOP('',(#157,#158,#159,#160));
#30=EDGE_LOOP('',(#161,#162,#163,#164));
#31=EDGE_LOOP('',(#165,#166,#167,#168));
#32=EDGE_LOOP('',(#169,#170,#171,#172));
#33=EDGE_LOOP('',(#173,#174,#175,#176));
#34=EDGE_LOOP('',(#177,#178,#179,#180));
#35=EDGE_LOOP('',(#181,#182,#183,#184));
#36=EDGE_LOOP('',(#185,#186,#187,#188));
#37=EDGE_LOOP('',(#189,#190,#191,#192,#193,#194,#195,#196,#197,#198));
#38=EDGE_LOOP('',(#199,#200,#201,#202,#203,#204,#205,#206,#207,#208));
#39=LINE('',#308,#69);
#40=LINE('',#310,#70);
#41=LINE('',#312,#71);
#42=LINE('',#313,#72);
#43=LINE('',#316,#73);
#44=LINE('',#318,#74);
#45=LINE('',#319,#75);
#46=LINE('',#322,#76);
#47=LINE('',#324,#77);
#48=LINE('',#325,#78);
#49=LINE('',#328,#79);
#50=LINE('',#330,#80);
#51=LINE('',#331,#81);
#52=LINE('',#334,#82);
#53=LINE('',#336,#83);
#54=LINE('',#337,#84);
#55=LINE('',#340,#85);
#56=LINE('',#342,#86);
#57=LINE('',#343,#87);
#58=LINE('',#346,#88);
#59=LINE('',#348,#89);
#60=LINE('',#349,#90);
#61=LINE('',#352,#91);
#62=LINE('',#354,#92);
#63=LINE('',#355,#93);
#64=LINE('',#358,#94);
#65=LINE('',#360,#95);
#66=LINE('',#361,#96);
#67=LINE('',#363,#97);
#68=LINE('',#364,#98);
#69=VECTOR('',#252,2.9);
#70=VECTOR('',#253,500.);
#71=VECTOR('',#254,2.9);
#72=VECTOR('',#255,500.);
#73=VECTOR('',#258,4.5);
#74=VECTOR('',#259,500.);
#75=VECTOR('',#260,4.5);
#76=VECTOR('',#263,2.5);
#77=VECTOR('',#264,500.);
#78=VECTOR('',#265,2.5);
#79=VECTOR('',#268,6.08769250208977);
#80=VECTOR('',#269,500.);
#81=VECTOR('',#270,6.08769250208977);
#82=VECTOR('',#273,8.);
#83=VECTOR('',#274,500.);
#84=VECTOR('',#275,8.);
#85=VECTOR('',#278,6.08769250208977);
#86=VECTOR('',#279,500.);
#87=VECTOR('',#280,6.08769250208977);
#88=VECTOR('',#283,2.5);
#89=VECTOR('',#284,500.);
#90=VECTOR('',#285,2.5);
#91=VECTOR('',#288,4.5);
#92=VECTOR('',#289,500.);
#93=VECTOR('',#290,4.5);
#94=VECTOR('',#293,2.9);
#95=VECTOR('',#294,500.);
#96=VECTOR('',#295,2.9);
#97=VECTOR('',#298,8.);
#98=VECTOR('',#299,8.);
#99=VERTEX_POINT('',#306);
#100=VERTEX_POINT('',#307);
#101=VERTEX_POINT('',#309);
#102=VERTEX_POINT('',#311);
#103=VERTEX_POINT('',#315);
#104=VERTEX_POINT('',#317);
#105=VERTEX_POINT('',#321);
#106=VERTEX_POINT('',#323);
#107=VERTEX_POINT('',#327);
#108=VERTEX_POINT('',#329);
#109=VERTEX_POINT('',#333);
#110=VERTEX_POINT('',#335);
#111=VERTEX_POINT('',#339);
#112=VERTEX_POINT('',#341);
#113=VERTEX_POINT('',#345);
#114=VERTEX_POINT('',#347);
#115=VERTEX_POINT('',#351);
#116=VERTEX_POINT('',#353);
#117=VERTEX_POINT('',#357);
#118=VERTEX_POINT('',#359);
#119=EDGE_CURVE('',#99,#100,#39,.T.);
#120=EDGE_CURVE('',#101,#100,#40,.T.);
#121=EDGE_CURVE('',#101,#102,#41,.T.);
#122=EDGE_CURVE('',#102,#99,#42,.T.);
#123=EDGE_CURVE('',#100,#103,#43,.T.);
#124=EDGE_CURVE('',#104,#103,#44,.T.);
#125=EDGE_CURVE('',#104,#101,#45,.T.);
#126=EDGE_CURVE('',#103,#105,#46,.T.);
#127=EDGE_CURVE('',#106,#105,#47,.T.);
#128=EDGE_CURVE('',#106,#104,#48,.T.);
#129=EDGE_CURVE('',#105,#107,#49,.T.);
#130=EDGE_CURVE('',#108,#107,#50,.T.);
#131=EDGE_CURVE('',#108,#106,#51,.T.);
#132=EDGE_CURVE('',#107,#109,#52,.T.);
#133=EDGE_CURVE('',#110,#109,#53,.T.);
#134=EDGE_CURVE('',#110,#108,#54,.T.);
#135=EDGE_CURVE('',#109,#111,#55,.T.);
#136=EDGE_CURVE('',#112,#111,#56,.T.);
#137=EDGE_CURVE('',#112,#110,#57,.T.);
#138=EDGE_CURVE('',#111,#113,#58,.T.);
#139=EDGE_CURVE('',#114,#113,#59,.T.);
#140=EDGE_CURVE('',#114,#112,#60,.T.);
#141=EDGE_CURVE('',#113,#115,#61,.T.);
#142=EDGE_CURVE('',#116,#115,#62,.T.);
#143=EDGE_CURVE('',#116,#114,#63,.T.);
#144=EDGE_CURVE('',#115,#117,#64,.T.);
#145=EDGE_CURVE('',#118,#117,#65,.T.);
#146=EDGE_CURVE('',#118,#116,#66,.T.);
#147=EDGE_CURVE('',#117,#99,#67,.T.);
#148=EDGE_CURVE('',#102,#118,#68,.T.);
#149=ORIENTED_EDGE('',*,*,#119,.T.);
#150=ORIENTED_EDGE('',*,*,#120,.F.);
#151=ORIENTED_EDGE('',*,*,#121,.T.);
#152=ORIENTED_EDGE('',*,*,#122,.T.);
#153=ORIENTED_EDGE('',*,*,#123,.T.);
#154=ORIENTED_EDGE('',*,*,#124,.F.);
#155=ORIENTED_EDGE('',*,*,#125,.T.);
#156=ORIENTED_EDGE('',*,*,#120,.T.);
#157=ORIENTED_EDGE('',*,*,#126,.T.);
#158=ORIENTED_EDGE('',*,*,#127,.F.);
#159=ORIENTED_EDGE('',*,*,#128,.T.);
#160=ORIENTED_EDGE('',*,*,#124,.T.);
#161=ORIENTED_EDGE('',*,*,#129,.T.);
#162=ORIENTED_EDGE('',*,*,#130,.F.);
#163=ORIENTED_EDGE('',*,*,#131,.T.);
#164=ORIENTED_EDGE('',*,*,#127,.T.);
#165=ORIENTED_EDGE('',*,*,#132,.T.);
#166=ORIENTED_EDGE('',*,*,#133,.F.);
#167=ORIENTED_EDGE('',*,*,#134,.T.);
#168=ORIENTED_EDGE('',*,*,#130,.T.);
#169=ORIENTED_EDGE('',*,*,#135,.T.);
#170=ORIENTED_EDGE('',*,*,#136,.F.);
#171=ORIENTED_EDGE('',*,*,#137,.T.);
#172=ORIENTED_EDGE('',*,*,#133,.T.);
#173=ORIENTED_EDGE('',*,*,#138,.T.);
#174=ORIENTED_EDGE('',*,*,#139,.F.);
#175=ORIENTED_EDGE('',*,*,#140,.T.);
#176=ORIENTED_EDGE('',*,*,#136,.T.);
#177=ORIENTED_EDGE('',*,*,#141,.T.);
#178=ORIENTED_EDGE('',*,*,#142,.F.);
#179=ORIENTED_EDGE('',*,*,#143,.T.);
#180=ORIENTED_EDGE('',*,*,#139,.T.);
#181=ORIENTED_EDGE('',*,*,#144,.T.);
#182=ORIENTED_EDGE('',*,*,#145,.F.);
#183=ORIENTED_EDGE('',*,*,#146,.T.);
#184=ORIENTED_EDGE('',*,*,#142,.T.);
#185=ORIENTED_EDGE('',*,*,#147,.T.);
#186=ORIENTED_EDGE('',*,*,#122,.F.);
#187=ORIENTED_EDGE('',*,*,#148,.T.);
#188=ORIENTED_EDGE('',*,*,#145,.T.);
#189=ORIENTED_EDGE('',*,*,#148,.F.);
#190=ORIENTED_EDGE('',*,*,#121,.F.);
#191=ORIENTED_EDGE('',*,*,#125,.F.);
#192=ORIENTED_EDGE('',*,*,#128,.F.);
#193=ORIENTED_EDGE('',*,*,#131,.F.);
#194=ORIENTED_EDGE('',*,*,#134,.F.);
#195=ORIENTED_EDGE('',*,*,#137,.F.);
#196=ORIENTED_EDGE('',*,*,#140,.F.);
#197=ORIENTED_EDGE('',*,*,#143,.F.);
#198=ORIENTED_EDGE('',*,*,#146,.F.);
#199=ORIENTED_EDGE('',*,*,#119,.F.);
#200=ORIENTED_EDGE('',*,*,#147,.F.);
#201=ORIENTED_EDGE('',*,*,#144,.F.);
#202=ORIENTED_EDGE('',*,*,#141,.F.);
#203=ORIENTED_EDGE('',*,*,#138,.F.);
#204=ORIENTED_EDGE('',*,*,#135,.F.);
#205=ORIENTED_EDGE('',*,*,#132,.F.);
#206=ORIENTED_EDGE('',*,*,#129,.F.);
#207=ORIENTED_EDGE('',*,*,#126,.F.);
#208=ORIENTED_EDGE('',*,*,#123,.F.);
#209=PLANE('',#236);
#210=PLANE('',#237);
#211=PLANE('',#238);
#212=PLANE('',#239);
#213=PLANE('',#240);
#214=PLANE('',#241);
#215=PLANE('',#242);
#216=PLANE('',#243);
#217=PLANE('',#244);
#218=PLANE('',#245);
#219=PLANE('',#246);
#220=PLANE('',#247);
#221=ADVANCED_FACE('',(#15),#209,.T.);
#222=ADVANCED_FACE('',(#16),#210,.T.);
#223=ADVANCED_FACE('',(#17),#211,.T.);
#224=ADVANCED_FACE('',(#18),#212,.T.);
#225=ADVANCED_FACE('',(#19),#213,.T.);
#226=ADVANCED_FACE('',(#20),#214,.T.);
#227=ADVANCED_FACE('',(#21),#215,.T.);
#228=ADVANCED_FACE('',(#22),#216,.T.);
#229=ADVANCED_FACE('',(#23),#217,.T.);
#230=ADVANCED_FACE('',(#24),#218,.T.);
#231=ADVANCED_FACE('',(#25),#219,.F.);
#232=ADVANCED_FACE('',(#26),#220,.T.);
#233=CLOSED_SHELL('',(#221,#222,#223,#224,#225,#226,#227,#228,#229,#230,
#231,#232));
#234=MANIFOLD_SOLID_BREP('Volumenk\X\F6rper1',#233);
#235=AXIS2_PLACEMENT_3D('placement',#304,#248,#249);
#236=AXIS2_PLACEMENT_3D('',#305,#250,#251);
#237=AXIS2_PLACEMENT_3D('',#314,#256,#257);
#238=AXIS2_PLACEMENT_3D('',#320,#261,#262);
#239=AXIS2_PLACEMENT_3D('',#326,#266,#267);
#240=AXIS2_PLACEMENT_3D('',#332,#271,#272);
#241=AXIS2_PLACEMENT_3D('',#338,#276,#277);
#242=AXIS2_PLACEMENT_3D('',#344,#281,#282);
#243=AXIS2_PLACEMENT_3D('',#350,#286,#287);
#244=AXIS2_PLACEMENT_3D('',#356,#291,#292);
#245=AXIS2_PLACEMENT_3D('',#362,#296,#297);
#246=AXIS2_PLACEMENT_3D('',#365,#300,#301);
#247=AXIS2_PLACEMENT_3D('',#366,#302,#303);
#248=DIRECTION('axis',(0.,0.,1.));
#249=DIRECTION('refdir',(1.,0.,0.));
#250=DIRECTION('center_axis',(1.,1.91417762866406E-016,0.));
#251=DIRECTION('ref_axis',(0.,0.,-1.));
#252=DIRECTION('',(1.91417762866406E-016,-1.,0.));
#253=DIRECTION('',(0.,0.,1.));
#254=DIRECTION('',(-1.91417762866406E-016,1.,0.));
#255=DIRECTION('',(0.,0.,1.));
#256=DIRECTION('center_axis',(-6.16790569236198E-017,1.,0.));
#257=DIRECTION('ref_axis',(0.,0.,1.));
#258=DIRECTION('',(1.,6.16790569236198E-017,0.));
#259=DIRECTION('',(0.,0.,1.));
#260=DIRECTION('',(-1.,-6.16790569236198E-017,0.));
#261=DIRECTION('center_axis',(1.,-2.77555756156289E-017,0.));
#262=DIRECTION('ref_axis',(0.,0.,-1.));
#263=DIRECTION('',(-2.77555756156289E-017,-1.,0.));
#264=DIRECTION('',(0.,0.,1.));
#265=DIRECTION('',(2.77555756156289E-017,1.,0.));
#266=DIRECTION('center_axis',(0.673489996183704,-0.739196337274797,0.));
#267=DIRECTION('ref_axis',(0.,0.,-1.));
#268=DIRECTION('',(-0.739196337274797,-0.673489996183704,0.));
#269=DIRECTION('',(0.,0.,1.));
#270=DIRECTION('',(0.739196337274797,0.673489996183704,0.));
#271=DIRECTION('center_axis',(2.08166817117217E-016,-1.,0.));
#272=DIRECTION('ref_axis',(0.,0.,-1.));
#273=DIRECTION('',(-1.,-2.08166817117217E-016,0.));
#274=DIRECTION('',(0.,0.,1.));
#275=DIRECTION('',(1.,2.08166817117217E-016,0.));
#276=DIRECTION('center_axis',(-0.673489996183704,-0.739196337274797,0.));
#277=DIRECTION('ref_axis',(0.,0.,1.));
#278=DIRECTION('',(-0.739196337274797,0.673489996183703,0.));
#279=DIRECTION('',(0.,0.,1.));
#280=DIRECTION('',(0.739196337274797,-0.673489996183703,0.));
#281=DIRECTION('center_axis',(-1.,0.,0.));
#282=DIRECTION('ref_axis',(0.,0.,1.));
#283=DIRECTION('',(0.,1.,0.));
#284=DIRECTION('',(0.,0.,1.));
#285=DIRECTION('',(0.,-1.,0.));
#286=DIRECTION('center_axis',(0.,1.,0.));
#287=DIRECTION('ref_axis',(0.,0.,1.));
#288=DIRECTION('',(1.,0.,0.));
#289=DIRECTION('',(0.,0.,1.));
#290=DIRECTION('',(-1.,0.,0.));
#291=DIRECTION('center_axis',(-1.,0.,0.));
#292=DIRECTION('ref_axis',(0.,0.,1.));
#293=DIRECTION('',(0.,1.,0.));
#294=DIRECTION('',(0.,0.,1.));
#295=DIRECTION('',(0.,-1.,0.));
#296=DIRECTION('center_axis',(-1.38777878078145E-016,1.,0.));
#297=DIRECTION('ref_axis',(0.,0.,1.));
#298=DIRECTION('',(1.,1.38777878078145E-016,0.));
#299=DIRECTION('',(-1.,-1.38777878078145E-016,0.));
#300=DIRECTION('center_axis',(5.75022356486793E-030,-1.47891465255503E-030,
1.));
#301=DIRECTION('ref_axis',(1.,0.,0.));
#302=DIRECTION('center_axis',(1.07802625736663E-029,-2.56635189708078E-030,
1.));
#303=DIRECTION('ref_axis',(1.,0.,0.));
#304=CARTESIAN_POINT('',(0.,0.,0.));
#305=CARTESIAN_POINT('Origin',(-4.91560083056045,4.83248083771441,22.));
#306=CARTESIAN_POINT('',(-4.91560083056045,4.83248083771441,522.));
#307=CARTESIAN_POINT('',(-4.91560083056045,1.93248083771441,522.));
#308=CARTESIAN_POINT('',(-4.91560083056045,1.93248083771441,522.));
#309=CARTESIAN_POINT('',(-4.91560083056045,1.93248083771441,22.));
#310=CARTESIAN_POINT('',(-4.91560083056045,1.93248083771441,22.));
#311=CARTESIAN_POINT('',(-4.91560083056045,4.83248083771441,22.));
#312=CARTESIAN_POINT('',(-4.91560083056045,1.93248083771441,22.));
#313=CARTESIAN_POINT('',(-4.91560083056045,4.83248083771441,22.));
#314=CARTESIAN_POINT('Origin',(-4.91560083056045,1.93248083771441,22.));
#315=CARTESIAN_POINT('',(-0.415600830560452,1.93248083771441,522.));
#316=CARTESIAN_POINT('',(-0.415600830560452,1.93248083771441,522.));
#317=CARTESIAN_POINT('',(-0.415600830560452,1.93248083771441,22.));
#318=CARTESIAN_POINT('',(-0.415600830560452,1.93248083771441,22.));
#319=CARTESIAN_POINT('',(-0.415600830560452,1.93248083771441,22.));
#320=CARTESIAN_POINT('Origin',(-0.415600830560452,1.93248083771441,22.));
#321=CARTESIAN_POINT('',(-0.415600830560452,-0.567519162285592,522.));
#322=CARTESIAN_POINT('',(-0.415600830560452,-0.567519162285592,522.));
#323=CARTESIAN_POINT('',(-0.415600830560452,-0.567519162285592,22.));
#324=CARTESIAN_POINT('',(-0.415600830560452,-0.567519162285592,22.));
#325=CARTESIAN_POINT('',(-0.415600830560452,-0.567519162285592,22.));
#326=CARTESIAN_POINT('Origin',(-0.415600830560452,-0.567519162285592,22.));
#327=CARTESIAN_POINT('',(-4.91560083056045,-4.66751916228559,522.));
#328=CARTESIAN_POINT('',(-4.91560083056045,-4.66751916228559,522.));
#329=CARTESIAN_POINT('',(-4.91560083056045,-4.66751916228559,22.));
#330=CARTESIAN_POINT('',(-4.91560083056045,-4.66751916228559,22.));
#331=CARTESIAN_POINT('',(-4.91560083056045,-4.66751916228559,22.));
#332=CARTESIAN_POINT('Origin',(-4.91560083056045,-4.66751916228559,22.));
#333=CARTESIAN_POINT('',(-12.9156008305605,-4.66751916228559,522.));
#334=CARTESIAN_POINT('',(-12.9156008305605,-4.66751916228559,522.));
#335=CARTESIAN_POINT('',(-12.9156008305605,-4.66751916228559,22.));
#336=CARTESIAN_POINT('',(-12.9156008305605,-4.66751916228559,22.));
#337=CARTESIAN_POINT('',(-12.9156008305605,-4.66751916228559,22.));
#338=CARTESIAN_POINT('Origin',(-12.9156008305605,-4.66751916228559,22.));
#339=CARTESIAN_POINT('',(-17.4156008305605,-0.567519162285594,522.));
#340=CARTESIAN_POINT('',(-17.4156008305605,-0.567519162285594,522.));
#341=CARTESIAN_POINT('',(-17.4156008305605,-0.567519162285594,22.));
#342=CARTESIAN_POINT('',(-17.4156008305605,-0.567519162285594,22.));
#343=CARTESIAN_POINT('',(-17.4156008305605,-0.567519162285594,22.));
#344=CARTESIAN_POINT('Origin',(-17.4156008305605,-0.567519162285594,22.));
#345=CARTESIAN_POINT('',(-17.4156008305605,1.93248083771441,522.));
#346=CARTESIAN_POINT('',(-17.4156008305605,1.93248083771441,522.));
#347=CARTESIAN_POINT('',(-17.4156008305605,1.93248083771441,22.));
#348=CARTESIAN_POINT('',(-17.4156008305605,1.93248083771441,22.));
#349=CARTESIAN_POINT('',(-17.4156008305605,1.93248083771441,22.));
#350=CARTESIAN_POINT('Origin',(-17.4156008305605,1.93248083771441,22.));
#351=CARTESIAN_POINT('',(-12.9156008305605,1.93248083771441,522.));
#352=CARTESIAN_POINT('',(-12.9156008305605,1.93248083771441,522.));
#353=CARTESIAN_POINT('',(-12.9156008305605,1.93248083771441,22.));
#354=CARTESIAN_POINT('',(-12.9156008305605,1.93248083771441,22.));
#355=CARTESIAN_POINT('',(-12.9156008305605,1.93248083771441,22.));
#356=CARTESIAN_POINT('Origin',(-12.9156008305605,1.93248083771441,22.));
#357=CARTESIAN_POINT('',(-12.9156008305605,4.83248083771441,522.));
#358=CARTESIAN_POINT('',(-12.9156008305605,4.83248083771441,522.));
#359=CARTESIAN_POINT('',(-12.9156008305605,4.83248083771441,22.));
#360=CARTESIAN_POINT('',(-12.9156008305605,4.83248083771441,22.));
#361=CARTESIAN_POINT('',(-12.9156008305605,4.83248083771441,22.));
#362=CARTESIAN_POINT('Origin',(-12.9156008305605,4.83248083771441,22.));
#363=CARTESIAN_POINT('',(-4.91560083056045,4.83248083771441,522.));
#364=CARTESIAN_POINT('',(-4.91560083056045,4.83248083771441,22.));
#365=CARTESIAN_POINT('Origin',(-8.91560083056045,0.205803672709891,22.));
#366=CARTESIAN_POINT('Origin',(-8.91560083056045,0.20580367270989,522.));
#367=UNCERTAINTY_MEASURE_WITH_UNIT(LENGTH_MEASURE(0.01),#371,
'DISTANCE_ACCURACY_VALUE',
'Maximum model space distance between geometric entities at asserted c
onnectivities');
#368=UNCERTAINTY_MEASURE_WITH_UNIT(LENGTH_MEASURE(1.E-006),#371,
'DISTANCE_ACCURACY_VALUE',
'Maximum model space distance between geometric entities at asserted c
onnectivities');
#369=(
GEOMETRIC_REPRESENTATION_CONTEXT(3)
GLOBAL_UNCERTAINTY_ASSIGNED_CONTEXT((#367))
GLOBAL_UNIT_ASSIGNED_CONTEXT((#371,#374,#372))
REPRESENTATION_CONTEXT('','3D')
);
#370=(
GEOMETRIC_REPRESENTATION_CONTEXT(3)
GLOBAL_UNCERTAINTY_ASSIGNED_CONTEXT((#368))
GLOBAL_UNIT_ASSIGNED_CONTEXT((#371,#374,#372))
REPRESENTATION_CONTEXT('','3D')
);
#371=(
LENGTH_UNIT()
NAMED_UNIT(*)
SI_UNIT(.MILLI.,.METRE.)
);
#372=(
NAMED_UNIT(*)
SI_UNIT($,.STERADIAN.)
SOLID_ANGLE_UNIT()
);
#373=DIMENSIONAL_EXPONENTS(0.,0.,0.,0.,0.,0.,0.);
#374=(
CONVERSION_BASED_UNIT('degree',#376)
NAMED_UNIT(#373)
PLANE_ANGLE_UNIT()
);
#375=(
NAMED_UNIT(*)
PLANE_ANGLE_UNIT()
SI_UNIT($,.RADIAN.)
);
#376=PLANE_ANGLE_MEASURE_WITH_UNIT(PLANE_ANGLE_MEASURE(0.01745329252),#375);
#377=SHAPE_DEFINITION_REPRESENTATION(#378,#379);
#378=PRODUCT_DEFINITION_SHAPE('',$,#381);
#379=SHAPE_REPRESENTATION('',(#235),#369);
#380=DESIGN_CONTEXT('part definition',#385,'design');
#381=PRODUCT_DEFINITION(
'11056_KriTec_Profilstab_8_St_schwer_mit_Steg_500mm',
'11056_KriTec_Profilstab_8_St_schwer_mit_Steg_500mm',#382,#380);
#382=PRODUCT_DEFINITION_FORMATION('',$,#387);
#383=PRODUCT_RELATED_PRODUCT_CATEGORY(
'11056_KriTec_Profilstab_8_St_schwer_mit_Steg_500mm',
'11056_KriTec_Profilstab_8_St_schwer_mit_Steg_500mm',(#387));
#384=APPLICATION_PROTOCOL_DEFINITION('international standard',
'ap203_configuration_controlled_3d_design_of_mechanical_parts_and_asse
mblies_mim_lf',2004,#385);
#385=APPLICATION_CONTEXT(
'Configuration Controlled 3D Design of Mechanical Parts and Assemblies');
#386=MECHANICAL_CONTEXT('part definition',#385,'mechanical');
#387=PRODUCT('11056_KriTec_Profilstab_8_St_schwer_mit_Steg_500mm',
'11056_KriTec_Profilstab_8_St_schwer_mit_Steg_500mm',$,(#386));
#388=PRESENTATION_STYLE_ASSIGNMENT((#390));
#389=PRESENTATION_STYLE_ASSIGNMENT((#391));
#390=SURFACE_STYLE_USAGE(.BOTH.,#392);
#391=SURFACE_STYLE_USAGE(.BOTH.,#393);
#392=SURFACE_SIDE_STYLE($,(#394));
#393=SURFACE_SIDE_STYLE($,(#395));
#394=SURFACE_STYLE_FILL_AREA(#396);
#395=SURFACE_STYLE_FILL_AREA(#397);
#396=FILL_AREA_STYLE($,(#398));
#397=FILL_AREA_STYLE($,(#399));
#398=FILL_AREA_STYLE_COLOUR($,#400);
#399=FILL_AREA_STYLE_COLOUR($,#401);
#400=COLOUR_RGB('',0.705882352941177,0.705882352941177,0.705882352941177);
#401=COLOUR_RGB('',0.956862745098039,0.956862745098039,0.956862745098039);
ENDSEC;
END-ISO-10303-21;
