ISO-10303-21;
HEADER;
/* Generated by software containing ST-Developer
 * from STEP Tools, Inc. (www.steptools.com) 
 */

FILE_DESCRIPTION(
/* description */ (''),
/* implementation_level */ '2;1');

FILE_NAME(
/* name */ 
'S:\\Bilder_neu\\11051_KriTec_Profilstab_8_St_glatt_2000mm\\Inventorda
teien\\11051_KriTec_Profilstab_8_St_glatt_2000mm.stp',
/* time_stamp */ '2015-11-16T09:08:00+01:00',
/* author */ ('kostic'),
/* organization */ (''),
/* preprocessor_version */ 'ST-DEVELOPER v15.2',
/* originating_system */ 'Autodesk Inventor 2014',
/* authorisation */ '');

FILE_SCHEMA (('CONFIG_CONTROL_DESIGN'));
ENDSEC;

DATA;
#10=MECHANICAL_DESIGN_GEOMETRIC_PRESENTATION_REPRESENTATION('',(#13),#177);
#11=SHAPE_REPRESENTATION_RELATIONSHIP('SRR','None',#186,#12);
#12=ADVANCED_BREP_SHAPE_REPRESENTATION($,(#101),#176);
#13=STYLED_ITEM('',(#195),#101);
#14=PLANE('',#112);
#15=PLANE('',#113);
#16=PLANE('',#114);
#17=FACE_OUTER_BOUND('',#23,.T.);
#18=FACE_OUTER_BOUND('',#24,.T.);
#19=FACE_OUTER_BOUND('',#25,.T.);
#20=FACE_OUTER_BOUND('',#26,.T.);
#21=FACE_OUTER_BOUND('',#27,.T.);
#22=FACE_OUTER_BOUND('',#28,.T.);
#23=EDGE_LOOP('',(#67,#68,#69,#70));
#24=EDGE_LOOP('',(#71,#72,#73,#74));
#25=EDGE_LOOP('',(#75,#76,#77,#78));
#26=EDGE_LOOP('',(#79,#80,#81,#82));
#27=EDGE_LOOP('',(#83,#84,#85,#86));
#28=EDGE_LOOP('',(#87,#88,#89,#90));
#29=LINE('',#153,#35);
#30=LINE('',#156,#36);
#31=LINE('',#162,#37);
#32=LINE('',#168,#38);
#33=LINE('',#170,#39);
#34=LINE('',#171,#40);
#35=VECTOR('',#121,2000.);
#36=VECTOR('',#124,2000.);
#37=VECTOR('',#131,2000.);
#38=VECTOR('',#138,2000.);
#39=VECTOR('',#141,13.7999999998861);
#40=VECTOR('',#142,13.7999999998861);
#41=CIRCLE('',#104,16.0012118218726);
#42=CIRCLE('',#105,16.0012118218726);
#43=CIRCLE('',#107,3.99999999999999);
#44=CIRCLE('',#108,3.99999999999999);
#45=CIRCLE('',#110,16.0012118217511);
#46=CIRCLE('',#111,16.0012118217511);
#47=VERTEX_POINT('',#149);
#48=VERTEX_POINT('',#150);
#49=VERTEX_POINT('',#152);
#50=VERTEX_POINT('',#154);
#51=VERTEX_POINT('',#158);
#52=VERTEX_POINT('',#160);
#53=VERTEX_POINT('',#164);
#54=VERTEX_POINT('',#166);
#55=EDGE_CURVE('',#47,#48,#41,.T.);
#56=EDGE_CURVE('',#48,#49,#29,.T.);
#57=EDGE_CURVE('',#50,#49,#42,.T.);
#58=EDGE_CURVE('',#47,#50,#30,.T.);
#59=EDGE_CURVE('',#51,#47,#43,.T.);
#60=EDGE_CURVE('',#52,#50,#44,.T.);
#61=EDGE_CURVE('',#51,#52,#31,.T.);
#62=EDGE_CURVE('',#53,#51,#45,.T.);
#63=EDGE_CURVE('',#54,#52,#46,.T.);
#64=EDGE_CURVE('',#53,#54,#32,.T.);
#65=EDGE_CURVE('',#48,#53,#33,.T.);
#66=EDGE_CURVE('',#49,#54,#34,.T.);
#67=ORIENTED_EDGE('',*,*,#55,.T.);
#68=ORIENTED_EDGE('',*,*,#56,.T.);
#69=ORIENTED_EDGE('',*,*,#57,.F.);
#70=ORIENTED_EDGE('',*,*,#58,.F.);
#71=ORIENTED_EDGE('',*,*,#59,.T.);
#72=ORIENTED_EDGE('',*,*,#58,.T.);
#73=ORIENTED_EDGE('',*,*,#60,.F.);
#74=ORIENTED_EDGE('',*,*,#61,.F.);
#75=ORIENTED_EDGE('',*,*,#62,.T.);
#76=ORIENTED_EDGE('',*,*,#61,.T.);
#77=ORIENTED_EDGE('',*,*,#63,.F.);
#78=ORIENTED_EDGE('',*,*,#64,.F.);
#79=ORIENTED_EDGE('',*,*,#65,.T.);
#80=ORIENTED_EDGE('',*,*,#64,.T.);
#81=ORIENTED_EDGE('',*,*,#66,.F.);
#82=ORIENTED_EDGE('',*,*,#56,.F.);
#83=ORIENTED_EDGE('',*,*,#66,.T.);
#84=ORIENTED_EDGE('',*,*,#63,.T.);
#85=ORIENTED_EDGE('',*,*,#60,.T.);
#86=ORIENTED_EDGE('',*,*,#57,.T.);
#87=ORIENTED_EDGE('',*,*,#65,.F.);
#88=ORIENTED_EDGE('',*,*,#55,.F.);
#89=ORIENTED_EDGE('',*,*,#59,.F.);
#90=ORIENTED_EDGE('',*,*,#62,.F.);
#91=CYLINDRICAL_SURFACE('',#103,16.0012118218726);
#92=CYLINDRICAL_SURFACE('',#106,3.99999999999999);
#93=CYLINDRICAL_SURFACE('',#109,16.0012118217511);
#94=ADVANCED_FACE('',(#17),#91,.T.);
#95=ADVANCED_FACE('',(#18),#92,.T.);
#96=ADVANCED_FACE('',(#19),#93,.T.);
#97=ADVANCED_FACE('',(#20),#14,.T.);
#98=ADVANCED_FACE('',(#21),#15,.T.);
#99=ADVANCED_FACE('',(#22),#16,.F.);
#100=CLOSED_SHELL('',(#94,#95,#96,#97,#98,#99));
#101=MANIFOLD_SOLID_BREP('Volumenk\X\F6rper4',#100);
#102=AXIS2_PLACEMENT_3D('placement',#147,#115,#116);
#103=AXIS2_PLACEMENT_3D('',#148,#117,#118);
#104=AXIS2_PLACEMENT_3D('',#151,#119,#120);
#105=AXIS2_PLACEMENT_3D('',#155,#122,#123);
#106=AXIS2_PLACEMENT_3D('',#157,#125,#126);
#107=AXIS2_PLACEMENT_3D('',#159,#127,#128);
#108=AXIS2_PLACEMENT_3D('',#161,#129,#130);
#109=AXIS2_PLACEMENT_3D('',#163,#132,#133);
#110=AXIS2_PLACEMENT_3D('',#165,#134,#135);
#111=AXIS2_PLACEMENT_3D('',#167,#136,#137);
#112=AXIS2_PLACEMENT_3D('',#169,#139,#140);
#113=AXIS2_PLACEMENT_3D('',#172,#143,#144);
#114=AXIS2_PLACEMENT_3D('',#173,#145,#146);
#115=DIRECTION('axis',(0.,0.,1.));
#116=DIRECTION('refdir',(1.,0.,0.));
#117=DIRECTION('center_axis',(0.,0.,1.));
#118=DIRECTION('ref_axis',(0.674996584030793,-0.737820853288086,0.));
#119=DIRECTION('center_axis',(0.,0.,1.));
#120=DIRECTION('ref_axis',(0.674996584030793,-0.737820853288086,0.));
#121=DIRECTION('',(0.,0.,1.));
#122=DIRECTION('center_axis',(0.,0.,1.));
#123=DIRECTION('ref_axis',(0.674996584030793,-0.737820853288086,0.));
#124=DIRECTION('',(0.,0.,1.));
#125=DIRECTION('center_axis',(0.,0.,1.));
#126=DIRECTION('ref_axis',(-0.672980990215545,-0.739659777741432,0.));
#127=DIRECTION('center_axis',(0.,0.,1.));
#128=DIRECTION('ref_axis',(-0.672980990215545,-0.739659777741432,0.));
#129=DIRECTION('center_axis',(0.,0.,1.));
#130=DIRECTION('ref_axis',(-0.672980990215545,-0.739659777741432,0.));
#131=DIRECTION('',(0.,0.,1.));
#132=DIRECTION('center_axis',(0.,0.,1.));
#133=DIRECTION('ref_axis',(-0.937981418405219,-0.346685532906313,0.));
#134=DIRECTION('center_axis',(0.,0.,1.));
#135=DIRECTION('ref_axis',(-0.937981418405219,-0.346685532906313,0.));
#136=DIRECTION('center_axis',(0.,0.,1.));
#137=DIRECTION('ref_axis',(-0.937981418405219,-0.346685532906313,0.));
#138=DIRECTION('',(0.,0.,1.));
#139=DIRECTION('center_axis',(2.92678828606153E-028,1.,0.));
#140=DIRECTION('ref_axis',(-1.,2.92678828606153E-028,0.));
#141=DIRECTION('',(-1.,2.92678828606153E-028,0.));
#142=DIRECTION('',(-1.,2.92678828606153E-028,0.));
#143=DIRECTION('center_axis',(0.,0.,1.));
#144=DIRECTION('ref_axis',(1.,0.,0.));
#145=DIRECTION('center_axis',(0.,0.,1.));
#146=DIRECTION('ref_axis',(1.,0.,0.));
#147=CARTESIAN_POINT('',(0.,0.,0.));
#148=CARTESIAN_POINT('Origin',(-1.20883936013084,5.54738864995422,0.));
#149=CARTESIAN_POINT('',(9.59192396022293,-6.25863911036188,0.));
#150=CARTESIAN_POINT('',(13.7999999998861,-4.03896783473158E-027,0.));
#151=CARTESIAN_POINT('Origin',(-1.20883936013084,5.54738864995422,0.));
#152=CARTESIAN_POINT('',(13.7999999998861,-4.03896783473158E-027,2000.));
#153=CARTESIAN_POINT('',(13.7999999998861,-4.03896783473158E-027,0.));
#154=CARTESIAN_POINT('',(9.59192396022293,-6.25863911036188,2000.));
#155=CARTESIAN_POINT('Origin',(-1.20883936013084,5.54738864995422,2000.));
#156=CARTESIAN_POINT('',(9.59192396022293,-6.25863911036188,0.));
#157=CARTESIAN_POINT('Origin',(6.89999999910599,-3.29999999915401,0.));
#158=CARTESIAN_POINT('',(4.20807603824382,-6.25863911011973,0.));
#159=CARTESIAN_POINT('Origin',(6.89999999910599,-3.29999999915401,0.));
#160=CARTESIAN_POINT('',(4.20807603824382,-6.25863911011973,2000.));
#161=CARTESIAN_POINT('Origin',(6.89999999910599,-3.29999999915401,2000.));
#162=CARTESIAN_POINT('',(4.20807603824382,-6.25863911011973,0.));
#163=CARTESIAN_POINT('Origin',(15.0088393607685,5.54738864757057,0.));
#164=CARTESIAN_POINT('',(0.,0.,0.));
#165=CARTESIAN_POINT('Origin',(15.0088393607685,5.54738864757057,0.));
#166=CARTESIAN_POINT('',(0.,0.,2000.));
#167=CARTESIAN_POINT('Origin',(15.0088393607685,5.54738864757057,2000.));
#168=CARTESIAN_POINT('',(0.,0.,0.));
#169=CARTESIAN_POINT('Origin',(13.7999999998861,-4.03896783473158E-027,
0.));
#170=CARTESIAN_POINT('',(13.7999999998861,-4.03896783473158E-027,0.));
#171=CARTESIAN_POINT('',(13.7999999998861,-4.03896783473158E-027,2000.));
#172=CARTESIAN_POINT('Origin',(6.89999999978513,-2.30757258673444,2000.));
#173=CARTESIAN_POINT('Origin',(6.89999999978513,-2.30757258673444,0.));
#174=UNCERTAINTY_MEASURE_WITH_UNIT(LENGTH_MEASURE(0.01),#178,
'DISTANCE_ACCURACY_VALUE',
'Maximum model space distance between geometric entities at asserted c
onnectivities');
#175=UNCERTAINTY_MEASURE_WITH_UNIT(LENGTH_MEASURE(1.E-006),#178,
'DISTANCE_ACCURACY_VALUE',
'Maximum model space distance between geometric entities at asserted c
onnectivities');
#176=(
GEOMETRIC_REPRESENTATION_CONTEXT(3)
GLOBAL_UNCERTAINTY_ASSIGNED_CONTEXT((#174))
GLOBAL_UNIT_ASSIGNED_CONTEXT((#178,#181,#179))
REPRESENTATION_CONTEXT('','3D')
);
#177=(
GEOMETRIC_REPRESENTATION_CONTEXT(3)
GLOBAL_UNCERTAINTY_ASSIGNED_CONTEXT((#175))
GLOBAL_UNIT_ASSIGNED_CONTEXT((#178,#181,#179))
REPRESENTATION_CONTEXT('','3D')
);
#178=(
LENGTH_UNIT()
NAMED_UNIT(*)
SI_UNIT(.MILLI.,.METRE.)
);
#179=(
NAMED_UNIT(*)
SI_UNIT($,.STERADIAN.)
SOLID_ANGLE_UNIT()
);
#180=DIMENSIONAL_EXPONENTS(0.,0.,0.,0.,0.,0.,0.);
#181=(
CONVERSION_BASED_UNIT('degree',#183)
NAMED_UNIT(#180)
PLANE_ANGLE_UNIT()
);
#182=(
NAMED_UNIT(*)
PLANE_ANGLE_UNIT()
SI_UNIT($,.RADIAN.)
);
#183=PLANE_ANGLE_MEASURE_WITH_UNIT(PLANE_ANGLE_MEASURE(0.01745329252),#182);
#184=SHAPE_DEFINITION_REPRESENTATION(#185,#186);
#185=PRODUCT_DEFINITION_SHAPE('',$,#188);
#186=SHAPE_REPRESENTATION('',(#102),#176);
#187=DESIGN_CONTEXT('part definition',#192,'design');
#188=PRODUCT_DEFINITION('11051_KriTec_Profilstab_8_St_glatt_2000mm',
'11051_KriTec_Profilstab_8_St_glatt_2000mm',#189,#187);
#189=PRODUCT_DEFINITION_FORMATION('',$,#194);
#190=PRODUCT_RELATED_PRODUCT_CATEGORY(
'11051_KriTec_Profilstab_8_St_glatt_2000mm',
'11051_KriTec_Profilstab_8_St_glatt_2000mm',(#194));
#191=APPLICATION_PROTOCOL_DEFINITION('international standard',
'ap203_configuration_controlled_3d_design_of_mechanical_parts_and_asse
mblies_mim_lf',2004,#192);
#192=APPLICATION_CONTEXT(
'Configuration Controlled 3D Design of Mechanical Parts and Assemblies');
#193=MECHANICAL_CONTEXT('part definition',#192,'mechanical');
#194=PRODUCT('11051_KriTec_Profilstab_8_St_glatt_2000mm',
'11051_KriTec_Profilstab_8_St_glatt_2000mm',$,(#193));
#195=PRESENTATION_STYLE_ASSIGNMENT((#196));
#196=SURFACE_STYLE_USAGE(.BOTH.,#197);
#197=SURFACE_SIDE_STYLE($,(#198));
#198=SURFACE_STYLE_FILL_AREA(#199);
#199=FILL_AREA_STYLE($,(#200));
#200=FILL_AREA_STYLE_COLOUR($,#201);
#201=COLOUR_RGB('',0.956862745098039,0.956862745098039,0.956862745098039);
ENDSEC;
END-ISO-10303-21;
