ISO-10303-21;
HEADER;
/* Generated by software containing ST-Developer
 * from STEP Tools, Inc. (www.steptools.com) 
 */

FILE_DESCRIPTION(
/* description */ (''),
/* implementation_level */ '2;1');

FILE_NAME(
/* name */ 
'S:\\Bilder_neu\\11047_KriTec_Profilstab_6_St_ohne_Steg_500mm\\Invento
rdateien\\11047_KriTec_Profilstab_6_St_ohne_Steg_500mm.stp',
/* time_stamp */ '2017-08-17T13:27:46+02:00',
/* author */ ('kostic'),
/* organization */ (''),
/* preprocessor_version */ 'ST-DEVELOPER v15.2',
/* originating_system */ 'Autodesk Inventor 2014',
/* authorisation */ '');

FILE_SCHEMA (('CONFIG_CONTROL_DESIGN'));
ENDSEC;

DATA;
#10=MECHANICAL_DESIGN_GEOMETRIC_PRESENTATION_REPRESENTATION('',(#13,#14),
#380);
#11=SHAPE_REPRESENTATION_RELATIONSHIP('SRR','None',#389,#12);
#12=ADVANCED_BREP_SHAPE_REPRESENTATION($,(#224),#379);
#13=STYLED_ITEM('',(#399),#222);
#14=STYLED_ITEM('',(#398),#224);
#15=CIRCLE('',#231,0.5);
#16=CIRCLE('',#232,0.5);
#17=CIRCLE('',#234,16.);
#18=CIRCLE('',#235,16.);
#19=CIRCLE('',#237,2.);
#20=CIRCLE('',#238,2.);
#21=CIRCLE('',#240,16.);
#22=CIRCLE('',#241,16.);
#23=CIRCLE('',#243,0.500000000000002);
#24=CIRCLE('',#244,0.500000000000002);
#25=CYLINDRICAL_SURFACE('',#230,0.5);
#26=CYLINDRICAL_SURFACE('',#233,16.);
#27=CYLINDRICAL_SURFACE('',#236,2.);
#28=CYLINDRICAL_SURFACE('',#239,16.);
#29=CYLINDRICAL_SURFACE('',#242,0.500000000000002);
#30=FACE_OUTER_BOUND('',#42,.T.);
#31=FACE_OUTER_BOUND('',#43,.T.);
#32=FACE_OUTER_BOUND('',#44,.T.);
#33=FACE_OUTER_BOUND('',#45,.T.);
#34=FACE_OUTER_BOUND('',#46,.T.);
#35=FACE_OUTER_BOUND('',#47,.T.);
#36=FACE_OUTER_BOUND('',#48,.T.);
#37=FACE_OUTER_BOUND('',#49,.T.);
#38=FACE_OUTER_BOUND('',#50,.T.);
#39=FACE_OUTER_BOUND('',#51,.T.);
#40=FACE_OUTER_BOUND('',#52,.T.);
#41=FACE_OUTER_BOUND('',#53,.T.);
#42=EDGE_LOOP('',(#144,#145,#146,#147));
#43=EDGE_LOOP('',(#148,#149,#150,#151));
#44=EDGE_LOOP('',(#152,#153,#154,#155));
#45=EDGE_LOOP('',(#156,#157,#158,#159));
#46=EDGE_LOOP('',(#160,#161,#162,#163));
#47=EDGE_LOOP('',(#164,#165,#166,#167));
#48=EDGE_LOOP('',(#168,#169,#170,#171));
#49=EDGE_LOOP('',(#172,#173,#174,#175));
#50=EDGE_LOOP('',(#176,#177,#178,#179));
#51=EDGE_LOOP('',(#180,#181,#182,#183));
#52=EDGE_LOOP('',(#184,#185,#186,#187,#188,#189,#190,#191,#192,#193));
#53=EDGE_LOOP('',(#194,#195,#196,#197,#198,#199,#200,#201,#202,#203));
#54=LINE('',#318,#74);
#55=LINE('',#320,#75);
#56=LINE('',#322,#76);
#57=LINE('',#323,#77);
#58=LINE('',#326,#78);
#59=LINE('',#328,#79);
#60=LINE('',#329,#80);
#61=LINE('',#332,#81);
#62=LINE('',#334,#82);
#63=LINE('',#335,#83);
#64=LINE('',#338,#84);
#65=LINE('',#340,#85);
#66=LINE('',#341,#86);
#67=LINE('',#346,#87);
#68=LINE('',#352,#88);
#69=LINE('',#358,#89);
#70=LINE('',#364,#90);
#71=LINE('',#370,#91);
#72=LINE('',#373,#92);
#73=LINE('',#374,#93);
#74=VECTOR('',#252,0.989949493661167);
#75=VECTOR('',#253,500.);
#76=VECTOR('',#254,0.989949493661167);
#77=VECTOR('',#255,500.);
#78=VECTOR('',#258,4.1);
#79=VECTOR('',#259,500.);
#80=VECTOR('',#260,4.1);
#81=VECTOR('',#263,0.989949493661166);
#82=VECTOR('',#264,500.);
#83=VECTOR('',#265,0.989949493661166);
#84=VECTOR('',#268,2.);
#85=VECTOR('',#269,500.);
#86=VECTOR('',#270,2.);
#87=VECTOR('',#275,500.);
#88=VECTOR('',#282,500.);
#89=VECTOR('',#289,500.);
#90=VECTOR('',#296,500.);
#91=VECTOR('',#303,500.);
#92=VECTOR('',#308,2.);
#93=VECTOR('',#309,2.);
#94=VERTEX_POINT('',#316);
#95=VERTEX_POINT('',#317);
#96=VERTEX_POINT('',#319);
#97=VERTEX_POINT('',#321);
#98=VERTEX_POINT('',#325);
#99=VERTEX_POINT('',#327);
#100=VERTEX_POINT('',#331);
#101=VERTEX_POINT('',#333);
#102=VERTEX_POINT('',#337);
#103=VERTEX_POINT('',#339);
#104=VERTEX_POINT('',#343);
#105=VERTEX_POINT('',#345);
#106=VERTEX_POINT('',#349);
#107=VERTEX_POINT('',#351);
#108=VERTEX_POINT('',#355);
#109=VERTEX_POINT('',#357);
#110=VERTEX_POINT('',#361);
#111=VERTEX_POINT('',#363);
#112=VERTEX_POINT('',#367);
#113=VERTEX_POINT('',#369);
#114=EDGE_CURVE('',#94,#95,#54,.T.);
#115=EDGE_CURVE('',#96,#95,#55,.T.);
#116=EDGE_CURVE('',#96,#97,#56,.T.);
#117=EDGE_CURVE('',#97,#94,#57,.T.);
#118=EDGE_CURVE('',#95,#98,#58,.T.);
#119=EDGE_CURVE('',#99,#98,#59,.T.);
#120=EDGE_CURVE('',#99,#96,#60,.T.);
#121=EDGE_CURVE('',#98,#100,#61,.T.);
#122=EDGE_CURVE('',#101,#100,#62,.T.);
#123=EDGE_CURVE('',#101,#99,#63,.T.);
#124=EDGE_CURVE('',#100,#102,#64,.T.);
#125=EDGE_CURVE('',#103,#102,#65,.T.);
#126=EDGE_CURVE('',#103,#101,#66,.T.);
#127=EDGE_CURVE('',#102,#104,#15,.T.);
#128=EDGE_CURVE('',#105,#104,#67,.T.);
#129=EDGE_CURVE('',#105,#103,#16,.T.);
#130=EDGE_CURVE('',#104,#106,#17,.T.);
#131=EDGE_CURVE('',#107,#106,#68,.T.);
#132=EDGE_CURVE('',#107,#105,#18,.T.);
#133=EDGE_CURVE('',#106,#108,#19,.T.);
#134=EDGE_CURVE('',#109,#108,#69,.T.);
#135=EDGE_CURVE('',#109,#107,#20,.T.);
#136=EDGE_CURVE('',#108,#110,#21,.T.);
#137=EDGE_CURVE('',#111,#110,#70,.T.);
#138=EDGE_CURVE('',#111,#109,#22,.T.);
#139=EDGE_CURVE('',#110,#112,#23,.T.);
#140=EDGE_CURVE('',#113,#112,#71,.T.);
#141=EDGE_CURVE('',#113,#111,#24,.T.);
#142=EDGE_CURVE('',#112,#94,#72,.T.);
#143=EDGE_CURVE('',#97,#113,#73,.T.);
#144=ORIENTED_EDGE('',*,*,#114,.T.);
#145=ORIENTED_EDGE('',*,*,#115,.F.);
#146=ORIENTED_EDGE('',*,*,#116,.T.);
#147=ORIENTED_EDGE('',*,*,#117,.T.);
#148=ORIENTED_EDGE('',*,*,#118,.T.);
#149=ORIENTED_EDGE('',*,*,#119,.F.);
#150=ORIENTED_EDGE('',*,*,#120,.T.);
#151=ORIENTED_EDGE('',*,*,#115,.T.);
#152=ORIENTED_EDGE('',*,*,#121,.T.);
#153=ORIENTED_EDGE('',*,*,#122,.F.);
#154=ORIENTED_EDGE('',*,*,#123,.T.);
#155=ORIENTED_EDGE('',*,*,#119,.T.);
#156=ORIENTED_EDGE('',*,*,#124,.T.);
#157=ORIENTED_EDGE('',*,*,#125,.F.);
#158=ORIENTED_EDGE('',*,*,#126,.T.);
#159=ORIENTED_EDGE('',*,*,#122,.T.);
#160=ORIENTED_EDGE('',*,*,#127,.T.);
#161=ORIENTED_EDGE('',*,*,#128,.F.);
#162=ORIENTED_EDGE('',*,*,#129,.T.);
#163=ORIENTED_EDGE('',*,*,#125,.T.);
#164=ORIENTED_EDGE('',*,*,#130,.T.);
#165=ORIENTED_EDGE('',*,*,#131,.F.);
#166=ORIENTED_EDGE('',*,*,#132,.T.);
#167=ORIENTED_EDGE('',*,*,#128,.T.);
#168=ORIENTED_EDGE('',*,*,#133,.T.);
#169=ORIENTED_EDGE('',*,*,#134,.F.);
#170=ORIENTED_EDGE('',*,*,#135,.T.);
#171=ORIENTED_EDGE('',*,*,#131,.T.);
#172=ORIENTED_EDGE('',*,*,#136,.T.);
#173=ORIENTED_EDGE('',*,*,#137,.F.);
#174=ORIENTED_EDGE('',*,*,#138,.T.);
#175=ORIENTED_EDGE('',*,*,#134,.T.);
#176=ORIENTED_EDGE('',*,*,#139,.T.);
#177=ORIENTED_EDGE('',*,*,#140,.F.);
#178=ORIENTED_EDGE('',*,*,#141,.T.);
#179=ORIENTED_EDGE('',*,*,#137,.T.);
#180=ORIENTED_EDGE('',*,*,#142,.T.);
#181=ORIENTED_EDGE('',*,*,#117,.F.);
#182=ORIENTED_EDGE('',*,*,#143,.T.);
#183=ORIENTED_EDGE('',*,*,#140,.T.);
#184=ORIENTED_EDGE('',*,*,#143,.F.);
#185=ORIENTED_EDGE('',*,*,#116,.F.);
#186=ORIENTED_EDGE('',*,*,#120,.F.);
#187=ORIENTED_EDGE('',*,*,#123,.F.);
#188=ORIENTED_EDGE('',*,*,#126,.F.);
#189=ORIENTED_EDGE('',*,*,#129,.F.);
#190=ORIENTED_EDGE('',*,*,#132,.F.);
#191=ORIENTED_EDGE('',*,*,#135,.F.);
#192=ORIENTED_EDGE('',*,*,#138,.F.);
#193=ORIENTED_EDGE('',*,*,#141,.F.);
#194=ORIENTED_EDGE('',*,*,#114,.F.);
#195=ORIENTED_EDGE('',*,*,#142,.F.);
#196=ORIENTED_EDGE('',*,*,#139,.F.);
#197=ORIENTED_EDGE('',*,*,#136,.F.);
#198=ORIENTED_EDGE('',*,*,#133,.F.);
#199=ORIENTED_EDGE('',*,*,#130,.F.);
#200=ORIENTED_EDGE('',*,*,#127,.F.);
#201=ORIENTED_EDGE('',*,*,#124,.F.);
#202=ORIENTED_EDGE('',*,*,#121,.F.);
#203=ORIENTED_EDGE('',*,*,#118,.F.);
#204=PLANE('',#226);
#205=PLANE('',#227);
#206=PLANE('',#228);
#207=PLANE('',#229);
#208=PLANE('',#245);
#209=PLANE('',#246);
#210=PLANE('',#247);
#211=ADVANCED_FACE('',(#30),#204,.T.);
#212=ADVANCED_FACE('',(#31),#205,.T.);
#213=ADVANCED_FACE('',(#32),#206,.T.);
#214=ADVANCED_FACE('',(#33),#207,.T.);
#215=ADVANCED_FACE('',(#34),#25,.T.);
#216=ADVANCED_FACE('',(#35),#26,.T.);
#217=ADVANCED_FACE('',(#36),#27,.T.);
#218=ADVANCED_FACE('',(#37),#28,.T.);
#219=ADVANCED_FACE('',(#38),#29,.T.);
#220=ADVANCED_FACE('',(#39),#208,.T.);
#221=ADVANCED_FACE('',(#40),#209,.F.);
#222=ADVANCED_FACE('',(#41),#210,.T.);
#223=CLOSED_SHELL('',(#211,#212,#213,#214,#215,#216,#217,#218,#219,#220,
#221,#222));
#224=MANIFOLD_SOLID_BREP('Volumenk\X\F6rper1',#223);
#225=AXIS2_PLACEMENT_3D('placement',#314,#248,#249);
#226=AXIS2_PLACEMENT_3D('',#315,#250,#251);
#227=AXIS2_PLACEMENT_3D('',#324,#256,#257);
#228=AXIS2_PLACEMENT_3D('',#330,#261,#262);
#229=AXIS2_PLACEMENT_3D('',#336,#266,#267);
#230=AXIS2_PLACEMENT_3D('',#342,#271,#272);
#231=AXIS2_PLACEMENT_3D('',#344,#273,#274);
#232=AXIS2_PLACEMENT_3D('',#347,#276,#277);
#233=AXIS2_PLACEMENT_3D('',#348,#278,#279);
#234=AXIS2_PLACEMENT_3D('',#350,#280,#281);
#235=AXIS2_PLACEMENT_3D('',#353,#283,#284);
#236=AXIS2_PLACEMENT_3D('',#354,#285,#286);
#237=AXIS2_PLACEMENT_3D('',#356,#287,#288);
#238=AXIS2_PLACEMENT_3D('',#359,#290,#291);
#239=AXIS2_PLACEMENT_3D('',#360,#292,#293);
#240=AXIS2_PLACEMENT_3D('',#362,#294,#295);
#241=AXIS2_PLACEMENT_3D('',#365,#297,#298);
#242=AXIS2_PLACEMENT_3D('',#366,#299,#300);
#243=AXIS2_PLACEMENT_3D('',#368,#301,#302);
#244=AXIS2_PLACEMENT_3D('',#371,#304,#305);
#245=AXIS2_PLACEMENT_3D('',#372,#306,#307);
#246=AXIS2_PLACEMENT_3D('',#375,#310,#311);
#247=AXIS2_PLACEMENT_3D('',#376,#312,#313);
#248=DIRECTION('axis',(0.,0.,1.));
#249=DIRECTION('refdir',(1.,0.,0.));
#250=DIRECTION('center_axis',(0.707106781186547,0.707106781186548,0.));
#251=DIRECTION('ref_axis',(0.,0.,-1.));
#252=DIRECTION('',(0.707106781186548,-0.707106781186547,0.));
#253=DIRECTION('',(0.,0.,1.));
#254=DIRECTION('',(-0.707106781186548,0.707106781186547,0.));
#255=DIRECTION('',(0.,0.,1.));
#256=DIRECTION('center_axis',(0.,1.,0.));
#257=DIRECTION('ref_axis',(0.,0.,1.));
#258=DIRECTION('',(1.,0.,0.));
#259=DIRECTION('',(0.,0.,1.));
#260=DIRECTION('',(-1.,0.,0.));
#261=DIRECTION('center_axis',(-0.707106781186547,0.707106781186548,0.));
#262=DIRECTION('ref_axis',(0.,0.,1.));
#263=DIRECTION('',(0.707106781186548,0.707106781186547,0.));
#264=DIRECTION('',(0.,0.,1.));
#265=DIRECTION('',(-0.707106781186548,-0.707106781186547,0.));
#266=DIRECTION('center_axis',(-6.93889390390723E-017,1.,0.));
#267=DIRECTION('ref_axis',(0.,0.,1.));
#268=DIRECTION('',(1.,6.93889390390723E-017,0.));
#269=DIRECTION('',(0.,0.,1.));
#270=DIRECTION('',(-1.,-6.93889390390723E-017,0.));
#271=DIRECTION('center_axis',(0.,0.,1.));
#272=DIRECTION('ref_axis',(0.900192849170855,-0.435491485911789,0.));
#273=DIRECTION('center_axis',(0.,0.,-1.));
#274=DIRECTION('ref_axis',(0.900192849170855,-0.435491485911789,0.));
#275=DIRECTION('',(0.,0.,1.));
#276=DIRECTION('center_axis',(0.,0.,1.));
#277=DIRECTION('ref_axis',(0.900192849170855,-0.435491485911789,0.));
#278=DIRECTION('center_axis',(0.,0.,1.));
#279=DIRECTION('ref_axis',(0.657356368724878,-0.753579859402335,0.));
#280=DIRECTION('center_axis',(0.,0.,-1.));
#281=DIRECTION('ref_axis',(0.657356368724878,-0.753579859402335,0.));
#282=DIRECTION('',(0.,0.,1.));
#283=DIRECTION('center_axis',(0.,0.,1.));
#284=DIRECTION('ref_axis',(0.657356368724878,-0.753579859402335,0.));
#285=DIRECTION('center_axis',(0.,0.,1.));
#286=DIRECTION('ref_axis',(-0.657356368724876,-0.753579859402336,0.));
#287=DIRECTION('center_axis',(0.,0.,-1.));
#288=DIRECTION('ref_axis',(-0.657356368724876,-0.753579859402336,0.));
#289=DIRECTION('',(0.,0.,1.));
#290=DIRECTION('center_axis',(0.,0.,1.));
#291=DIRECTION('ref_axis',(-0.657356368724876,-0.753579859402336,0.));
#292=DIRECTION('center_axis',(0.,0.,1.));
#293=DIRECTION('ref_axis',(-0.900192849170857,-0.435491485911786,0.));
#294=DIRECTION('center_axis',(0.,0.,-1.));
#295=DIRECTION('ref_axis',(-0.900192849170857,-0.435491485911786,0.));
#296=DIRECTION('',(0.,0.,1.));
#297=DIRECTION('center_axis',(0.,0.,1.));
#298=DIRECTION('ref_axis',(-0.900192849170857,-0.435491485911786,0.));
#299=DIRECTION('center_axis',(0.,0.,1.));
#300=DIRECTION('ref_axis',(0.,1.,0.));
#301=DIRECTION('center_axis',(0.,0.,-1.));
#302=DIRECTION('ref_axis',(0.,1.,0.));
#303=DIRECTION('',(0.,0.,1.));
#304=DIRECTION('center_axis',(0.,0.,1.));
#305=DIRECTION('ref_axis',(0.,1.,0.));
#306=DIRECTION('center_axis',(0.,1.,0.));
#307=DIRECTION('ref_axis',(0.,0.,1.));
#308=DIRECTION('',(1.,0.,0.));
#309=DIRECTION('',(-1.,0.,0.));
#310=DIRECTION('center_axis',(6.53608171750856E-031,1.28282393626912E-030,
1.));
#311=DIRECTION('ref_axis',(1.,0.,0.));
#312=DIRECTION('center_axis',(-3.47229341242639E-031,-3.29949038629918E-030,
1.));
#313=DIRECTION('ref_axis',(1.,0.,0.));
#314=CARTESIAN_POINT('',(0.,0.,0.));
#315=CARTESIAN_POINT('Origin',(-2.75,0.,17.));
#316=CARTESIAN_POINT('',(-2.75,0.,517.));
#317=CARTESIAN_POINT('',(-2.05,-0.7,517.));
#318=CARTESIAN_POINT('',(-2.05,-0.7,517.));
#319=CARTESIAN_POINT('',(-2.05,-0.7,17.));
#320=CARTESIAN_POINT('',(-2.05,-0.7,17.));
#321=CARTESIAN_POINT('',(-2.75,0.,17.));
#322=CARTESIAN_POINT('',(-2.05,-0.7,17.));
#323=CARTESIAN_POINT('',(-2.75,0.,17.));
#324=CARTESIAN_POINT('Origin',(-2.05,-0.7,17.));
#325=CARTESIAN_POINT('',(2.05,-0.7,517.));
#326=CARTESIAN_POINT('',(2.05,-0.7,517.));
#327=CARTESIAN_POINT('',(2.05,-0.7,17.));
#328=CARTESIAN_POINT('',(2.05,-0.7,17.));
#329=CARTESIAN_POINT('',(2.05,-0.7,17.));
#330=CARTESIAN_POINT('Origin',(2.05,-0.7,17.));
#331=CARTESIAN_POINT('',(2.75,0.,517.));
#332=CARTESIAN_POINT('',(2.75,0.,517.));
#333=CARTESIAN_POINT('',(2.75,0.,17.));
#334=CARTESIAN_POINT('',(2.75,0.,17.));
#335=CARTESIAN_POINT('',(2.75,0.,17.));
#336=CARTESIAN_POINT('Origin',(2.75,0.,17.));
#337=CARTESIAN_POINT('',(4.75,1.38777878078145E-016,517.));
#338=CARTESIAN_POINT('',(4.75,1.38777878078145E-016,517.));
#339=CARTESIAN_POINT('',(4.75,1.38777878078145E-016,17.));
#340=CARTESIAN_POINT('',(4.75,1.38777878078145E-016,17.));
#341=CARTESIAN_POINT('',(4.75,1.38777878078145E-016,17.));
#342=CARTESIAN_POINT('Origin',(4.75,-0.5,17.));
#343=CARTESIAN_POINT('',(5.20009642458542,-0.71774574295589,517.));
#344=CARTESIAN_POINT('Origin',(4.75,-0.5,517.));
#345=CARTESIAN_POINT('',(5.20009642458542,-0.71774574295589,17.));
#346=CARTESIAN_POINT('',(5.20009642458542,-0.71774574295589,17.));
#347=CARTESIAN_POINT('Origin',(4.75,-0.5,17.));
#348=CARTESIAN_POINT('Origin',(-9.20298916214832,6.25011803163271,17.));
#349=CARTESIAN_POINT('',(1.31471273744975,-5.80715971880467,517.));
#350=CARTESIAN_POINT('Origin',(-9.20298916214832,6.25011803163271,517.));
#351=CARTESIAN_POINT('',(1.31471273744975,-5.80715971880467,17.));
#352=CARTESIAN_POINT('',(1.31471273744975,-5.80715971880467,17.));
#353=CARTESIAN_POINT('Origin',(-9.20298916214832,6.25011803163271,17.));
#354=CARTESIAN_POINT('Origin',(-5.55111512312578E-016,-4.3,17.));
#355=CARTESIAN_POINT('',(-1.31471273744976,-5.80715971880468,517.));
#356=CARTESIAN_POINT('Origin',(-5.55111512312578E-016,-4.3,517.));
#357=CARTESIAN_POINT('',(-1.31471273744976,-5.80715971880468,17.));
#358=CARTESIAN_POINT('',(-1.31471273744976,-5.80715971880468,17.));
#359=CARTESIAN_POINT('Origin',(-5.55111512312578E-016,-4.3,17.));
#360=CARTESIAN_POINT('Origin',(9.20298916214828,6.25011803163269,17.));
#361=CARTESIAN_POINT('',(-5.20009642458543,-0.717745742955894,517.));
#362=CARTESIAN_POINT('Origin',(9.20298916214828,6.25011803163269,517.));
#363=CARTESIAN_POINT('',(-5.20009642458543,-0.717745742955894,17.));
#364=CARTESIAN_POINT('',(-5.20009642458543,-0.717745742955894,17.));
#365=CARTESIAN_POINT('Origin',(9.20298916214828,6.25011803163269,17.));
#366=CARTESIAN_POINT('Origin',(-4.75,-0.500000000000002,17.));
#367=CARTESIAN_POINT('',(-4.75,0.,517.));
#368=CARTESIAN_POINT('Origin',(-4.75,-0.500000000000002,517.));
#369=CARTESIAN_POINT('',(-4.75,0.,17.));
#370=CARTESIAN_POINT('',(-4.75,0.,17.));
#371=CARTESIAN_POINT('Origin',(-4.75,-0.500000000000002,17.));
#372=CARTESIAN_POINT('Origin',(-4.75,0.,17.));
#373=CARTESIAN_POINT('',(-2.75,0.,517.));
#374=CARTESIAN_POINT('',(-2.75,0.,17.));
#375=CARTESIAN_POINT('Origin',(-1.07899800205757E-014,-2.34084043555287,
17.));
#376=CARTESIAN_POINT('Origin',(-1.0842021724855E-014,-2.34084043555287,
517.));
#377=UNCERTAINTY_MEASURE_WITH_UNIT(LENGTH_MEASURE(0.01),#381,
'DISTANCE_ACCURACY_VALUE',
'Maximum model space distance between geometric entities at asserted c
onnectivities');
#378=UNCERTAINTY_MEASURE_WITH_UNIT(LENGTH_MEASURE(1.E-006),#381,
'DISTANCE_ACCURACY_VALUE',
'Maximum model space distance between geometric entities at asserted c
onnectivities');
#379=(
GEOMETRIC_REPRESENTATION_CONTEXT(3)
GLOBAL_UNCERTAINTY_ASSIGNED_CONTEXT((#377))
GLOBAL_UNIT_ASSIGNED_CONTEXT((#381,#384,#382))
REPRESENTATION_CONTEXT('','3D')
);
#380=(
GEOMETRIC_REPRESENTATION_CONTEXT(3)
GLOBAL_UNCERTAINTY_ASSIGNED_CONTEXT((#378))
GLOBAL_UNIT_ASSIGNED_CONTEXT((#381,#384,#382))
REPRESENTATION_CONTEXT('','3D')
);
#381=(
LENGTH_UNIT()
NAMED_UNIT(*)
SI_UNIT(.MILLI.,.METRE.)
);
#382=(
NAMED_UNIT(*)
SI_UNIT($,.STERADIAN.)
SOLID_ANGLE_UNIT()
);
#383=DIMENSIONAL_EXPONENTS(0.,0.,0.,0.,0.,0.,0.);
#384=(
CONVERSION_BASED_UNIT('degree',#386)
NAMED_UNIT(#383)
PLANE_ANGLE_UNIT()
);
#385=(
NAMED_UNIT(*)
PLANE_ANGLE_UNIT()
SI_UNIT($,.RADIAN.)
);
#386=PLANE_ANGLE_MEASURE_WITH_UNIT(PLANE_ANGLE_MEASURE(0.01745329252),#385);
#387=SHAPE_DEFINITION_REPRESENTATION(#388,#389);
#388=PRODUCT_DEFINITION_SHAPE('',$,#391);
#389=SHAPE_REPRESENTATION('',(#225),#379);
#390=DESIGN_CONTEXT('part definition',#395,'design');
#391=PRODUCT_DEFINITION('11047_KriTec_Profilstab_6_St_ohne_Steg_500mm',
'11047_KriTec_Profilstab_6_St_ohne_Steg_500mm',#392,#390);
#392=PRODUCT_DEFINITION_FORMATION('',$,#397);
#393=PRODUCT_RELATED_PRODUCT_CATEGORY(
'11047_KriTec_Profilstab_6_St_ohne_Steg_500mm',
'11047_KriTec_Profilstab_6_St_ohne_Steg_500mm',(#397));
#394=APPLICATION_PROTOCOL_DEFINITION('international standard',
'ap203_configuration_controlled_3d_design_of_mechanical_parts_and_asse
mblies_mim_lf',2004,#395);
#395=APPLICATION_CONTEXT(
'Configuration Controlled 3D Design of Mechanical Parts and Assemblies');
#396=MECHANICAL_CONTEXT('part definition',#395,'mechanical');
#397=PRODUCT('11047_KriTec_Profilstab_6_St_ohne_Steg_500mm',
'11047_KriTec_Profilstab_6_St_ohne_Steg_500mm',$,(#396));
#398=PRESENTATION_STYLE_ASSIGNMENT((#400));
#399=PRESENTATION_STYLE_ASSIGNMENT((#401));
#400=SURFACE_STYLE_USAGE(.BOTH.,#402);
#401=SURFACE_STYLE_USAGE(.BOTH.,#403);
#402=SURFACE_SIDE_STYLE($,(#404));
#403=SURFACE_SIDE_STYLE($,(#405));
#404=SURFACE_STYLE_FILL_AREA(#406);
#405=SURFACE_STYLE_FILL_AREA(#407);
#406=FILL_AREA_STYLE($,(#408));
#407=FILL_AREA_STYLE($,(#409));
#408=FILL_AREA_STYLE_COLOUR($,#410);
#409=FILL_AREA_STYLE_COLOUR($,#411);
#410=COLOUR_RGB('',0.8,0.8,0.8);
#411=COLOUR_RGB('',0.956862745098039,0.956862745098039,0.956862745098039);
ENDSEC;
END-ISO-10303-21;
