ISO-10303-21;
HEADER;
/* Generated by software containing ST-Developer
 * from STEP Tools, Inc. (www.steptools.com) 
 */

FILE_DESCRIPTION(
/* description */ (''),
/* implementation_level */ '2;1');

FILE_NAME(
/* name */ 
'S:\\Bilder_neu\\11000_KriTec_Profilstab_8_St_schwer_einschiebbar_ohne
_Steg_500mm\\Inventordateien\\11000_KriTec_Profilstab_8_St_schwer_eins
chiebbar_ohne_Steg_500mm.stp',
/* time_stamp */ '2017-08-09T16:04:27+02:00',
/* author */ ('kostic'),
/* organization */ (''),
/* preprocessor_version */ 'ST-DEVELOPER v16.1',
/* originating_system */ 'Autodesk Inventor 2016',
/* authorisation */ ' ');

FILE_SCHEMA (('AUTOMOTIVE_DESIGN { 1 0 10303 214 3 1 1 }'));
ENDSEC;

DATA;
#10=MECHANICAL_DESIGN_GEOMETRIC_PRESENTATION_REPRESENTATION('',(#251,#252,
#253,#254,#255,#256,#257,#258,#259,#264,#260,#261,#262,#263,#265),#464);
#11=DIMENSIONAL_EXPONENTS(0.,0.,0.,0.,0.,0.,0.);
#12=(
CONVERSION_BASED_UNIT('degree',#13)
NAMED_UNIT(#11)
PLANE_ANGLE_UNIT()
);
#13=PLANE_ANGLE_MEASURE_WITH_UNIT(PLANE_ANGLE_MEASURE(0.01745329252),#467);
#14=SHAPE_REPRESENTATION_RELATIONSHIP('SRR','None',#470,#15);
#15=ADVANCED_BREP_SHAPE_REPRESENTATION('',(#16),#463);
#16=MANIFOLD_SOLID_BREP('Volumenk\X\F6rper1',#280);
#17=PLANE('',#285);
#18=PLANE('',#289);
#19=PLANE('',#293);
#20=PLANE('',#297);
#21=PLANE('',#301);
#22=PLANE('',#305);
#23=PLANE('',#306);
#24=PLANE('',#307);
#25=FACE_OUTER_BOUND('',#39,.T.);
#26=FACE_OUTER_BOUND('',#40,.T.);
#27=FACE_OUTER_BOUND('',#41,.T.);
#28=FACE_OUTER_BOUND('',#42,.T.);
#29=FACE_OUTER_BOUND('',#43,.T.);
#30=FACE_OUTER_BOUND('',#44,.T.);
#31=FACE_OUTER_BOUND('',#45,.T.);
#32=FACE_OUTER_BOUND('',#46,.T.);
#33=FACE_OUTER_BOUND('',#47,.T.);
#34=FACE_OUTER_BOUND('',#48,.T.);
#35=FACE_OUTER_BOUND('',#49,.T.);
#36=FACE_OUTER_BOUND('',#50,.T.);
#37=FACE_OUTER_BOUND('',#51,.T.);
#38=FACE_OUTER_BOUND('',#52,.T.);
#39=EDGE_LOOP('',(#173,#174,#175,#176));
#40=EDGE_LOOP('',(#177,#178,#179,#180));
#41=EDGE_LOOP('',(#181,#182,#183,#184));
#42=EDGE_LOOP('',(#185,#186,#187,#188));
#43=EDGE_LOOP('',(#189,#190,#191,#192));
#44=EDGE_LOOP('',(#193,#194,#195,#196));
#45=EDGE_LOOP('',(#197,#198,#199,#200));
#46=EDGE_LOOP('',(#201,#202,#203,#204));
#47=EDGE_LOOP('',(#205,#206,#207,#208));
#48=EDGE_LOOP('',(#209,#210,#211,#212));
#49=EDGE_LOOP('',(#213,#214,#215,#216));
#50=EDGE_LOOP('',(#217,#218,#219,#220));
#51=EDGE_LOOP('',(#221,#222,#223,#224,#225,#226,#227,#228,#229,#230,#231,
#232));
#52=EDGE_LOOP('',(#233,#234,#235,#236,#237,#238,#239,#240,#241,#242,#243,
#244));
#53=LINE('',#392,#77);
#54=LINE('',#395,#78);
#55=LINE('',#398,#79);
#56=LINE('',#400,#80);
#57=LINE('',#401,#81);
#58=LINE('',#406,#82);
#59=LINE('',#410,#83);
#60=LINE('',#412,#84);
#61=LINE('',#413,#85);
#62=LINE('',#418,#86);
#63=LINE('',#422,#87);
#64=LINE('',#424,#88);
#65=LINE('',#425,#89);
#66=LINE('',#430,#90);
#67=LINE('',#434,#91);
#68=LINE('',#436,#92);
#69=LINE('',#437,#93);
#70=LINE('',#442,#94);
#71=LINE('',#446,#95);
#72=LINE('',#448,#96);
#73=LINE('',#449,#97);
#74=LINE('',#454,#98);
#75=LINE('',#457,#99);
#76=LINE('',#458,#100);
#77=VECTOR('',#314,500.);
#78=VECTOR('',#317,500.);
#79=VECTOR('',#320,6.63186927282395);
#80=VECTOR('',#321,500.);
#81=VECTOR('',#322,6.63186927282395);
#82=VECTOR('',#327,500.);
#83=VECTOR('',#332,1.77652828);
#84=VECTOR('',#333,500.);
#85=VECTOR('',#334,1.77652828);
#86=VECTOR('',#339,500.);
#87=VECTOR('',#344,17.);
#88=VECTOR('',#345,500.);
#89=VECTOR('',#346,17.);
#90=VECTOR('',#351,500.);
#91=VECTOR('',#356,1.77652828);
#92=VECTOR('',#357,500.);
#93=VECTOR('',#358,1.77652828);
#94=VECTOR('',#363,500.);
#95=VECTOR('',#368,6.63186927282422);
#96=VECTOR('',#369,500.);
#97=VECTOR('',#370,6.63186927282422);
#98=VECTOR('',#375,500.);
#99=VECTOR('',#380,7.11777596);
#100=VECTOR('',#381,7.11777596);
#101=CIRCLE('',#283,0.500000000000008);
#102=CIRCLE('',#284,0.500000000000008);
#103=CIRCLE('',#287,0.499999996099985);
#104=CIRCLE('',#288,0.499999996099985);
#105=CIRCLE('',#291,0.499999999999999);
#106=CIRCLE('',#292,0.499999999999999);
#107=CIRCLE('',#295,0.499999999999995);
#108=CIRCLE('',#296,0.499999999999995);
#109=CIRCLE('',#299,0.500000000000003);
#110=CIRCLE('',#300,0.500000000000003);
#111=CIRCLE('',#303,0.499999996099979);
#112=CIRCLE('',#304,0.499999996099979);
#113=VERTEX_POINT('',#388);
#114=VERTEX_POINT('',#389);
#115=VERTEX_POINT('',#391);
#116=VERTEX_POINT('',#393);
#117=VERTEX_POINT('',#397);
#118=VERTEX_POINT('',#399);
#119=VERTEX_POINT('',#403);
#120=VERTEX_POINT('',#405);
#121=VERTEX_POINT('',#409);
#122=VERTEX_POINT('',#411);
#123=VERTEX_POINT('',#415);
#124=VERTEX_POINT('',#417);
#125=VERTEX_POINT('',#421);
#126=VERTEX_POINT('',#423);
#127=VERTEX_POINT('',#427);
#128=VERTEX_POINT('',#429);
#129=VERTEX_POINT('',#433);
#130=VERTEX_POINT('',#435);
#131=VERTEX_POINT('',#439);
#132=VERTEX_POINT('',#441);
#133=VERTEX_POINT('',#445);
#134=VERTEX_POINT('',#447);
#135=VERTEX_POINT('',#451);
#136=VERTEX_POINT('',#453);
#137=EDGE_CURVE('',#113,#114,#101,.T.);
#138=EDGE_CURVE('',#115,#114,#53,.T.);
#139=EDGE_CURVE('',#115,#116,#102,.T.);
#140=EDGE_CURVE('',#116,#113,#54,.T.);
#141=EDGE_CURVE('',#114,#117,#55,.T.);
#142=EDGE_CURVE('',#118,#117,#56,.T.);
#143=EDGE_CURVE('',#115,#118,#57,.T.);
#144=EDGE_CURVE('',#117,#119,#103,.T.);
#145=EDGE_CURVE('',#120,#119,#58,.T.);
#146=EDGE_CURVE('',#120,#118,#104,.T.);
#147=EDGE_CURVE('',#119,#121,#59,.T.);
#148=EDGE_CURVE('',#122,#121,#60,.T.);
#149=EDGE_CURVE('',#120,#122,#61,.T.);
#150=EDGE_CURVE('',#121,#123,#105,.T.);
#151=EDGE_CURVE('',#124,#123,#62,.T.);
#152=EDGE_CURVE('',#124,#122,#106,.T.);
#153=EDGE_CURVE('',#123,#125,#63,.T.);
#154=EDGE_CURVE('',#126,#125,#64,.T.);
#155=EDGE_CURVE('',#124,#126,#65,.T.);
#156=EDGE_CURVE('',#125,#127,#107,.T.);
#157=EDGE_CURVE('',#128,#127,#66,.T.);
#158=EDGE_CURVE('',#128,#126,#108,.T.);
#159=EDGE_CURVE('',#127,#129,#67,.T.);
#160=EDGE_CURVE('',#130,#129,#68,.T.);
#161=EDGE_CURVE('',#128,#130,#69,.T.);
#162=EDGE_CURVE('',#129,#131,#109,.T.);
#163=EDGE_CURVE('',#132,#131,#70,.T.);
#164=EDGE_CURVE('',#132,#130,#110,.T.);
#165=EDGE_CURVE('',#131,#133,#71,.T.);
#166=EDGE_CURVE('',#134,#133,#72,.T.);
#167=EDGE_CURVE('',#132,#134,#73,.T.);
#168=EDGE_CURVE('',#133,#135,#111,.T.);
#169=EDGE_CURVE('',#136,#135,#74,.T.);
#170=EDGE_CURVE('',#136,#134,#112,.T.);
#171=EDGE_CURVE('',#135,#113,#75,.T.);
#172=EDGE_CURVE('',#136,#116,#76,.T.);
#173=ORIENTED_EDGE('',*,*,#137,.T.);
#174=ORIENTED_EDGE('',*,*,#138,.F.);
#175=ORIENTED_EDGE('',*,*,#139,.T.);
#176=ORIENTED_EDGE('',*,*,#140,.T.);
#177=ORIENTED_EDGE('',*,*,#141,.T.);
#178=ORIENTED_EDGE('',*,*,#142,.F.);
#179=ORIENTED_EDGE('',*,*,#143,.F.);
#180=ORIENTED_EDGE('',*,*,#138,.T.);
#181=ORIENTED_EDGE('',*,*,#144,.T.);
#182=ORIENTED_EDGE('',*,*,#145,.F.);
#183=ORIENTED_EDGE('',*,*,#146,.T.);
#184=ORIENTED_EDGE('',*,*,#142,.T.);
#185=ORIENTED_EDGE('',*,*,#147,.T.);
#186=ORIENTED_EDGE('',*,*,#148,.F.);
#187=ORIENTED_EDGE('',*,*,#149,.F.);
#188=ORIENTED_EDGE('',*,*,#145,.T.);
#189=ORIENTED_EDGE('',*,*,#150,.T.);
#190=ORIENTED_EDGE('',*,*,#151,.F.);
#191=ORIENTED_EDGE('',*,*,#152,.T.);
#192=ORIENTED_EDGE('',*,*,#148,.T.);
#193=ORIENTED_EDGE('',*,*,#153,.T.);
#194=ORIENTED_EDGE('',*,*,#154,.F.);
#195=ORIENTED_EDGE('',*,*,#155,.F.);
#196=ORIENTED_EDGE('',*,*,#151,.T.);
#197=ORIENTED_EDGE('',*,*,#156,.T.);
#198=ORIENTED_EDGE('',*,*,#157,.F.);
#199=ORIENTED_EDGE('',*,*,#158,.T.);
#200=ORIENTED_EDGE('',*,*,#154,.T.);
#201=ORIENTED_EDGE('',*,*,#159,.T.);
#202=ORIENTED_EDGE('',*,*,#160,.F.);
#203=ORIENTED_EDGE('',*,*,#161,.F.);
#204=ORIENTED_EDGE('',*,*,#157,.T.);
#205=ORIENTED_EDGE('',*,*,#162,.T.);
#206=ORIENTED_EDGE('',*,*,#163,.F.);
#207=ORIENTED_EDGE('',*,*,#164,.T.);
#208=ORIENTED_EDGE('',*,*,#160,.T.);
#209=ORIENTED_EDGE('',*,*,#165,.T.);
#210=ORIENTED_EDGE('',*,*,#166,.F.);
#211=ORIENTED_EDGE('',*,*,#167,.F.);
#212=ORIENTED_EDGE('',*,*,#163,.T.);
#213=ORIENTED_EDGE('',*,*,#168,.T.);
#214=ORIENTED_EDGE('',*,*,#169,.F.);
#215=ORIENTED_EDGE('',*,*,#170,.T.);
#216=ORIENTED_EDGE('',*,*,#166,.T.);
#217=ORIENTED_EDGE('',*,*,#171,.T.);
#218=ORIENTED_EDGE('',*,*,#140,.F.);
#219=ORIENTED_EDGE('',*,*,#172,.F.);
#220=ORIENTED_EDGE('',*,*,#169,.T.);
#221=ORIENTED_EDGE('',*,*,#137,.F.);
#222=ORIENTED_EDGE('',*,*,#171,.F.);
#223=ORIENTED_EDGE('',*,*,#168,.F.);
#224=ORIENTED_EDGE('',*,*,#165,.F.);
#225=ORIENTED_EDGE('',*,*,#162,.F.);
#226=ORIENTED_EDGE('',*,*,#159,.F.);
#227=ORIENTED_EDGE('',*,*,#156,.F.);
#228=ORIENTED_EDGE('',*,*,#153,.F.);
#229=ORIENTED_EDGE('',*,*,#150,.F.);
#230=ORIENTED_EDGE('',*,*,#147,.F.);
#231=ORIENTED_EDGE('',*,*,#144,.F.);
#232=ORIENTED_EDGE('',*,*,#141,.F.);
#233=ORIENTED_EDGE('',*,*,#172,.T.);
#234=ORIENTED_EDGE('',*,*,#139,.F.);
#235=ORIENTED_EDGE('',*,*,#143,.T.);
#236=ORIENTED_EDGE('',*,*,#146,.F.);
#237=ORIENTED_EDGE('',*,*,#149,.T.);
#238=ORIENTED_EDGE('',*,*,#152,.F.);
#239=ORIENTED_EDGE('',*,*,#155,.T.);
#240=ORIENTED_EDGE('',*,*,#158,.F.);
#241=ORIENTED_EDGE('',*,*,#161,.T.);
#242=ORIENTED_EDGE('',*,*,#164,.F.);
#243=ORIENTED_EDGE('',*,*,#167,.T.);
#244=ORIENTED_EDGE('',*,*,#170,.F.);
#245=CYLINDRICAL_SURFACE('',#282,0.500000000000008);
#246=CYLINDRICAL_SURFACE('',#286,0.499999996099985);
#247=CYLINDRICAL_SURFACE('',#290,0.499999999999999);
#248=CYLINDRICAL_SURFACE('',#294,0.499999999999995);
#249=CYLINDRICAL_SURFACE('',#298,0.500000000000003);
#250=CYLINDRICAL_SURFACE('',#302,0.499999996099979);
#251=STYLED_ITEM('',(#479),#266);
#252=STYLED_ITEM('',(#479),#267);
#253=STYLED_ITEM('',(#479),#268);
#254=STYLED_ITEM('',(#479),#269);
#255=STYLED_ITEM('',(#479),#270);
#256=STYLED_ITEM('',(#479),#271);
#257=STYLED_ITEM('',(#479),#272);
#258=STYLED_ITEM('',(#479),#273);
#259=STYLED_ITEM('',(#479),#274);
#260=STYLED_ITEM('',(#479),#275);
#261=STYLED_ITEM('',(#479),#276);
#262=STYLED_ITEM('',(#479),#277);
#263=STYLED_ITEM('',(#479),#278);
#264=STYLED_ITEM('',(#479),#279);
#265=STYLED_ITEM('',(#479),#16);
#266=ADVANCED_FACE('',(#25),#245,.T.);
#267=ADVANCED_FACE('',(#26),#17,.T.);
#268=ADVANCED_FACE('',(#27),#246,.T.);
#269=ADVANCED_FACE('',(#28),#18,.T.);
#270=ADVANCED_FACE('',(#29),#247,.T.);
#271=ADVANCED_FACE('',(#30),#19,.T.);
#272=ADVANCED_FACE('',(#31),#248,.T.);
#273=ADVANCED_FACE('',(#32),#20,.T.);
#274=ADVANCED_FACE('',(#33),#249,.T.);
#275=ADVANCED_FACE('',(#34),#21,.T.);
#276=ADVANCED_FACE('',(#35),#250,.T.);
#277=ADVANCED_FACE('',(#36),#22,.T.);
#278=ADVANCED_FACE('',(#37),#23,.T.);
#279=ADVANCED_FACE('',(#38),#24,.F.);
#280=CLOSED_SHELL('',(#266,#267,#268,#269,#270,#271,#272,#273,#274,#275,
#276,#277,#278,#279));
#281=AXIS2_PLACEMENT_3D('placement',#386,#308,#309);
#282=AXIS2_PLACEMENT_3D('',#387,#310,#311);
#283=AXIS2_PLACEMENT_3D('',#390,#312,#313);
#284=AXIS2_PLACEMENT_3D('',#394,#315,#316);
#285=AXIS2_PLACEMENT_3D('',#396,#318,#319);
#286=AXIS2_PLACEMENT_3D('',#402,#323,#324);
#287=AXIS2_PLACEMENT_3D('',#404,#325,#326);
#288=AXIS2_PLACEMENT_3D('',#407,#328,#329);
#289=AXIS2_PLACEMENT_3D('',#408,#330,#331);
#290=AXIS2_PLACEMENT_3D('',#414,#335,#336);
#291=AXIS2_PLACEMENT_3D('',#416,#337,#338);
#292=AXIS2_PLACEMENT_3D('',#419,#340,#341);
#293=AXIS2_PLACEMENT_3D('',#420,#342,#343);
#294=AXIS2_PLACEMENT_3D('',#426,#347,#348);
#295=AXIS2_PLACEMENT_3D('',#428,#349,#350);
#296=AXIS2_PLACEMENT_3D('',#431,#352,#353);
#297=AXIS2_PLACEMENT_3D('',#432,#354,#355);
#298=AXIS2_PLACEMENT_3D('',#438,#359,#360);
#299=AXIS2_PLACEMENT_3D('',#440,#361,#362);
#300=AXIS2_PLACEMENT_3D('',#443,#364,#365);
#301=AXIS2_PLACEMENT_3D('',#444,#366,#367);
#302=AXIS2_PLACEMENT_3D('',#450,#371,#372);
#303=AXIS2_PLACEMENT_3D('',#452,#373,#374);
#304=AXIS2_PLACEMENT_3D('',#455,#376,#377);
#305=AXIS2_PLACEMENT_3D('',#456,#378,#379);
#306=AXIS2_PLACEMENT_3D('',#459,#382,#383);
#307=AXIS2_PLACEMENT_3D('',#460,#384,#385);
#308=DIRECTION('axis',(0.,0.,1.));
#309=DIRECTION('refdir',(1.,0.,0.));
#310=DIRECTION('center_axis',(0.,-1.,0.));
#311=DIRECTION('ref_axis',(-0.667002245246998,0.,-0.745055705860618));
#312=DIRECTION('center_axis',(0.,1.,0.));
#313=DIRECTION('ref_axis',(-0.667002245246998,0.,-0.745055705860618));
#314=DIRECTION('',(0.,-1.,0.));
#315=DIRECTION('center_axis',(0.,-1.,0.));
#316=DIRECTION('ref_axis',(-0.667002245246998,0.,-0.745055705860618));
#317=DIRECTION('',(0.,-1.,0.));
#318=DIRECTION('center_axis',(-0.667002248992814,0.,-0.745055702507221));
#319=DIRECTION('ref_axis',(0.745055702507221,0.,-0.667002248992814));
#320=DIRECTION('',(-0.745055702507221,0.,0.667002248992814));
#321=DIRECTION('',(0.,-1.,0.));
#322=DIRECTION('',(-0.745055702507221,0.,0.667002248992814));
#323=DIRECTION('center_axis',(0.,-1.,0.));
#324=DIRECTION('ref_axis',(-1.,0.,1.5099033252675E-14));
#325=DIRECTION('center_axis',(0.,1.,0.));
#326=DIRECTION('ref_axis',(-1.,0.,1.5099033252675E-14));
#327=DIRECTION('',(0.,-1.,0.));
#328=DIRECTION('center_axis',(0.,-1.,0.));
#329=DIRECTION('ref_axis',(-1.,0.,1.5099033252675E-14));
#330=DIRECTION('center_axis',(-1.,0.,0.));
#331=DIRECTION('ref_axis',(0.,0.,-1.));
#332=DIRECTION('',(0.,0.,1.));
#333=DIRECTION('',(0.,-1.,0.));
#334=DIRECTION('',(0.,0.,1.));
#335=DIRECTION('center_axis',(0.,-1.,0.));
#336=DIRECTION('ref_axis',(0.,0.,1.));
#337=DIRECTION('center_axis',(0.,1.,0.));
#338=DIRECTION('ref_axis',(0.,0.,1.));
#339=DIRECTION('',(0.,-1.,0.));
#340=DIRECTION('center_axis',(0.,-1.,0.));
#341=DIRECTION('ref_axis',(0.,0.,1.));
#342=DIRECTION('center_axis',(0.,0.,1.));
#343=DIRECTION('ref_axis',(-1.,0.,0.));
#344=DIRECTION('',(1.,0.,0.));
#345=DIRECTION('',(0.,-1.,0.));
#346=DIRECTION('',(1.,0.,0.));
#347=DIRECTION('center_axis',(0.,-1.,0.));
#348=DIRECTION('ref_axis',(1.,0.,-9.76996261670148E-15));
#349=DIRECTION('center_axis',(0.,1.,0.));
#350=DIRECTION('ref_axis',(1.,0.,-9.76996261670148E-15));
#351=DIRECTION('',(0.,-1.,0.));
#352=DIRECTION('center_axis',(0.,-1.,0.));
#353=DIRECTION('ref_axis',(1.,0.,-9.76996261670148E-15));
#354=DIRECTION('center_axis',(1.,0.,0.));
#355=DIRECTION('ref_axis',(0.,0.,1.));
#356=DIRECTION('',(0.,0.,-1.));
#357=DIRECTION('',(0.,-1.,0.));
#358=DIRECTION('',(0.,0.,-1.));
#359=DIRECTION('center_axis',(0.,-1.,0.));
#360=DIRECTION('ref_axis',(0.667002245247004,0.,-0.745055705860613));
#361=DIRECTION('center_axis',(0.,1.,0.));
#362=DIRECTION('ref_axis',(0.667002245247004,0.,-0.745055705860613));
#363=DIRECTION('',(0.,-1.,0.));
#364=DIRECTION('center_axis',(0.,-1.,0.));
#365=DIRECTION('ref_axis',(0.667002245247004,0.,-0.745055705860613));
#366=DIRECTION('center_axis',(0.667002248992814,0.,-0.745055702507221));
#367=DIRECTION('ref_axis',(0.745055702507221,0.,0.667002248992814));
#368=DIRECTION('',(-0.745055702507221,0.,-0.667002248992814));
#369=DIRECTION('',(0.,-1.,0.));
#370=DIRECTION('',(-0.745055702507221,0.,-0.667002248992814));
#371=DIRECTION('center_axis',(0.,-1.,0.));
#372=DIRECTION('ref_axis',(-1.59872116793032E-14,0.,-1.));
#373=DIRECTION('center_axis',(0.,1.,0.));
#374=DIRECTION('ref_axis',(-1.59872116793032E-14,0.,-1.));
#375=DIRECTION('',(0.,-1.,0.));
#376=DIRECTION('center_axis',(0.,-1.,0.));
#377=DIRECTION('ref_axis',(-1.59872116793032E-14,0.,-1.));
#378=DIRECTION('center_axis',(0.,0.,-1.));
#379=DIRECTION('ref_axis',(1.,0.,0.));
#380=DIRECTION('',(-1.,0.,0.));
#381=DIRECTION('',(-1.,0.,0.));
#382=DIRECTION('center_axis',(0.,-1.,0.));
#383=DIRECTION('ref_axis',(1.,0.,0.));
#384=DIRECTION('center_axis',(0.,-1.,0.));
#385=DIRECTION('ref_axis',(1.,0.,0.));
#386=CARTESIAN_POINT('',(0.,0.,0.));
#387=CARTESIAN_POINT('Origin',(-3.55888798,250.,-6.69999999999999));
#388=CARTESIAN_POINT('',(-3.55888798,-250.,-7.2));
#389=CARTESIAN_POINT('',(-3.89238910145754,-250.,-7.07252785162791));
#390=CARTESIAN_POINT('Origin',(-3.55888798,-250.,-6.69999999999999));
#391=CARTESIAN_POINT('',(-3.89238910145754,250.,-7.07252785162791));
#392=CARTESIAN_POINT('',(-3.8923891026235,250.,-7.07252785293031));
#393=CARTESIAN_POINT('',(-3.55888798,250.,-7.2));
#394=CARTESIAN_POINT('Origin',(-3.55888798,250.,-6.69999999999999));
#395=CARTESIAN_POINT('',(-3.55888798,250.,-7.2));
#396=CARTESIAN_POINT('Origin',(-6.36294511000005,250.,-4.86079198999995));
#397=CARTESIAN_POINT('',(-8.83350112,-250.,-2.64905613));
#398=CARTESIAN_POINT('',(-3.8923891,-250.,-7.07252785));
#399=CARTESIAN_POINT('',(-8.83350112,250.,-2.64905613));
#400=CARTESIAN_POINT('',(-8.83350112,250.,-2.64905613));
#401=CARTESIAN_POINT('',(-3.8923891,250.,-7.07252785));
#402=CARTESIAN_POINT('Origin',(-8.50000000000001,250.,-2.27652828000001));
#403=CARTESIAN_POINT('',(-8.99999999783333,-250.,-2.27652828));
#404=CARTESIAN_POINT('Origin',(-8.50000000000001,-250.,-2.27652828000001));
#405=CARTESIAN_POINT('',(-8.99999999783333,250.,-2.27652828));
#406=CARTESIAN_POINT('',(-8.9999999961,250.,-2.27652828));
#407=CARTESIAN_POINT('Origin',(-8.50000000000001,250.,-2.27652828000001));
#408=CARTESIAN_POINT('Origin',(-9.,250.,-1.38826414));
#409=CARTESIAN_POINT('',(-9.,-250.,-0.5));
#410=CARTESIAN_POINT('',(-9.,-250.,-2.27652828));
#411=CARTESIAN_POINT('',(-9.,250.,-0.5));
#412=CARTESIAN_POINT('',(-9.,250.,-0.5));
#413=CARTESIAN_POINT('',(-9.,250.,-2.27652828));
#414=CARTESIAN_POINT('Origin',(-8.5,250.,-0.499999999999999));
#415=CARTESIAN_POINT('',(-8.5,-250.,0.));
#416=CARTESIAN_POINT('Origin',(-8.5,-250.,-0.499999999999999));
#417=CARTESIAN_POINT('',(-8.5,250.,0.));
#418=CARTESIAN_POINT('',(-8.5,250.,0.));
#419=CARTESIAN_POINT('Origin',(-8.5,250.,-0.499999999999999));
#420=CARTESIAN_POINT('Origin',(0.,250.,0.));
#421=CARTESIAN_POINT('',(8.5,-250.,0.));
#422=CARTESIAN_POINT('',(-8.5,-250.,0.));
#423=CARTESIAN_POINT('',(8.5,250.,0.));
#424=CARTESIAN_POINT('',(8.5,250.,0.));
#425=CARTESIAN_POINT('',(-8.5,250.,0.));
#426=CARTESIAN_POINT('Origin',(8.50000000000001,250.,-0.499999999999995));
#427=CARTESIAN_POINT('',(9.,-250.,-0.5));
#428=CARTESIAN_POINT('Origin',(8.50000000000001,-250.,-0.499999999999995));
#429=CARTESIAN_POINT('',(9.,250.,-0.5));
#430=CARTESIAN_POINT('',(9.,250.,-0.5));
#431=CARTESIAN_POINT('Origin',(8.50000000000001,250.,-0.499999999999995));
#432=CARTESIAN_POINT('Origin',(9.,250.,-1.38826414));
#433=CARTESIAN_POINT('',(9.,-250.,-2.27652828));
#434=CARTESIAN_POINT('',(9.,-250.,-0.5));
#435=CARTESIAN_POINT('',(9.,250.,-2.27652828));
#436=CARTESIAN_POINT('',(9.,250.,-2.27652828));
#437=CARTESIAN_POINT('',(9.,250.,-0.5));
#438=CARTESIAN_POINT('Origin',(8.5,250.,-2.27652828));
#439=CARTESIAN_POINT('',(8.83350112145755,-250.,-2.64905613162791));
#440=CARTESIAN_POINT('Origin',(8.5,-250.,-2.27652828));
#441=CARTESIAN_POINT('',(8.83350112145755,250.,-2.64905613162791));
#442=CARTESIAN_POINT('',(8.8335011226235,250.,-2.64905613293031));
#443=CARTESIAN_POINT('Origin',(8.5,250.,-2.27652828));
#444=CARTESIAN_POINT('Origin',(6.36294511000005,250.,-4.86079198999996));
#445=CARTESIAN_POINT('',(3.8923891,-250.,-7.07252785));
#446=CARTESIAN_POINT('',(8.83350112,-250.,-2.64905613));
#447=CARTESIAN_POINT('',(3.8923891,250.,-7.07252785));
#448=CARTESIAN_POINT('',(3.8923891,250.,-7.07252785));
#449=CARTESIAN_POINT('',(8.83350112,250.,-2.64905613));
#450=CARTESIAN_POINT('Origin',(3.55888798000001,250.,-6.70000000000002));
#451=CARTESIAN_POINT('',(3.55888798,-250.,-7.19999999826667));
#452=CARTESIAN_POINT('Origin',(3.55888798000001,-250.,-6.70000000000002));
#453=CARTESIAN_POINT('',(3.55888798,250.,-7.19999999826667));
#454=CARTESIAN_POINT('',(3.55888798,250.,-7.2));
#455=CARTESIAN_POINT('Origin',(3.55888798000001,250.,-6.70000000000002));
#456=CARTESIAN_POINT('Origin',(0.,250.,-7.2));
#457=CARTESIAN_POINT('',(3.55888798,-250.,-7.2));
#458=CARTESIAN_POINT('',(3.55888798,250.,-7.2));
#459=CARTESIAN_POINT('Origin',(4.45376416302601E-10,-250.,-2.90978882495931));
#460=CARTESIAN_POINT('Origin',(4.45376135277398E-10,250.,-2.90978882495931));
#461=UNCERTAINTY_MEASURE_WITH_UNIT(LENGTH_MEASURE(0.01),#465,
'DISTANCE_ACCURACY_VALUE',
'Maximum model space distance between geometric entities at asserted c
onnectivities');
#462=UNCERTAINTY_MEASURE_WITH_UNIT(LENGTH_MEASURE(1.E-6),#465,
'DISTANCE_ACCURACY_VALUE',
'Maximum model space distance between geometric entities at asserted c
onnectivities');
#463=(
GEOMETRIC_REPRESENTATION_CONTEXT(3)
GLOBAL_UNCERTAINTY_ASSIGNED_CONTEXT((#461))
GLOBAL_UNIT_ASSIGNED_CONTEXT((#465,#467,#466))
REPRESENTATION_CONTEXT('','3D')
);
#464=(
GEOMETRIC_REPRESENTATION_CONTEXT(3)
GLOBAL_UNCERTAINTY_ASSIGNED_CONTEXT((#462))
GLOBAL_UNIT_ASSIGNED_CONTEXT((#465,#12,#466))
REPRESENTATION_CONTEXT('','3D')
);
#465=(
LENGTH_UNIT()
NAMED_UNIT(*)
SI_UNIT(.MILLI.,.METRE.)
);
#466=(
NAMED_UNIT(*)
SI_UNIT($,.STERADIAN.)
SOLID_ANGLE_UNIT()
);
#467=(
NAMED_UNIT(*)
PLANE_ANGLE_UNIT()
SI_UNIT($,.RADIAN.)
);
#468=SHAPE_DEFINITION_REPRESENTATION(#469,#470);
#469=PRODUCT_DEFINITION_SHAPE('',$,#472);
#470=SHAPE_REPRESENTATION('',(#281),#463);
#471=PRODUCT_DEFINITION_CONTEXT('part definition',#476,'design');
#472=PRODUCT_DEFINITION(
'11000_KriTec_Profilstab_8_St_schwer_einschiebbar_ohne_Steg_500mm',
'11000_KriTec_Profilstab_8_St_schwer_einschiebbar_ohne_Steg_500mm',#473,
#471);
#473=PRODUCT_DEFINITION_FORMATION('',$,#478);
#474=PRODUCT_RELATED_PRODUCT_CATEGORY(
'11000_KriTec_Profilstab_8_St_schwer_einschiebbar_ohne_Steg_500mm',
'11000_KriTec_Profilstab_8_St_schwer_einschiebbar_ohne_Steg_500mm',(#478));
#475=APPLICATION_PROTOCOL_DEFINITION('international standard',
'automotive_design',2009,#476);
#476=APPLICATION_CONTEXT(
'Core Data for Automotive Mechanical Design Process');
#477=PRODUCT_CONTEXT('part definition',#476,'mechanical');
#478=PRODUCT(
'11000_KriTec_Profilstab_8_St_schwer_einschiebbar_ohne_Steg_500mm',
'11000_KriTec_Profilstab_8_St_schwer_einschiebbar_ohne_Steg_500mm',$,(#477));
#479=PRESENTATION_STYLE_ASSIGNMENT((#480));
#480=SURFACE_STYLE_USAGE(.BOTH.,#481);
#481=SURFACE_SIDE_STYLE('',(#482));
#482=SURFACE_STYLE_FILL_AREA(#483);
#483=FILL_AREA_STYLE('',(#484));
#484=FILL_AREA_STYLE_COLOUR('',#485);
#485=COLOUR_RGB('',0.956862745098039,0.956862745098039,0.956862745098039);
ENDSEC;
END-ISO-10303-21;
