ISO-10303-21;
HEADER;
/* Generated by software containing ST-Developer
 * from STEP Tools, Inc. (www.steptools.com) 
 */

FILE_DESCRIPTION(
/* description */ (''),
/* implementation_level */ '2;1');

FILE_NAME(
/* name */ 
'S:\\Bilder_neu\\10834_KriTec_Sechskantmutter_VA_rostfrei_DIN_934_M3\\
Inventordateien\\10834_KriTec_Sechskantmutter_VA_rostfrei_DIN_934_M3.s
tp',
/* time_stamp */ '2015-01-07T09:01:58+01:00',
/* author */ ('Kostic'),
/* organization */ (''),
/* preprocessor_version */ 'ST-DEVELOPER v15.2',
/* originating_system */ 'Autodesk Inventor 2014',
/* authorisation */ '');

FILE_SCHEMA (('AUTOMOTIVE_DESIGN { 1 0 10303 214 3 1 1 }'));
ENDSEC;

DATA;
#10=SHAPE_REPRESENTATION_RELATIONSHIP('SRR','None',#357,#11);
#11=ADVANCED_BREP_SHAPE_REPRESENTATION($,(#200),#348);
#12=STYLED_ITEM($,(#365),#200);
#13=LINE($,#336,#19);
#14=LINE($,#337,#20);
#15=LINE($,#339,#21);
#16=LINE($,#341,#22);
#17=LINE($,#343,#23);
#18=LINE($,#345,#24);
#19=VECTOR($,#251,1.33140954468665);
#20=VECTOR($,#252,1.33140954468665);
#21=VECTOR($,#255,1.33140954468665);
#22=VECTOR($,#258,1.33140954468665);
#23=VECTOR($,#261,1.33140954468665);
#24=VECTOR($,#264,1.33140954468665);
#25=(
BOUNDED_CURVE()
B_SPLINE_CURVE(2,(#288,#289,#290),.UNSPECIFIED.,.F.,.F.)
B_SPLINE_CURVE_WITH_KNOTS((3,3),(0.,0.321319937971427),.UNSPECIFIED.)
CURVE()
GEOMETRIC_REPRESENTATION_ITEM()
RATIONAL_B_SPLINE_CURVE((1.,1.15470053837925,1.))
REPRESENTATION_ITEM($)
);
#26=(
BOUNDED_CURVE()
B_SPLINE_CURVE(2,(#292,#293,#294),.UNSPECIFIED.,.F.,.F.)
B_SPLINE_CURVE_WITH_KNOTS((3,3),(0.,0.321319937971428),.UNSPECIFIED.)
CURVE()
GEOMETRIC_REPRESENTATION_ITEM()
RATIONAL_B_SPLINE_CURVE((1.,1.15470053837925,1.))
REPRESENTATION_ITEM($)
);
#27=(
BOUNDED_CURVE()
B_SPLINE_CURVE(2,(#296,#297,#298),.UNSPECIFIED.,.F.,.F.)
B_SPLINE_CURVE_WITH_KNOTS((3,3),(0.,0.321319937971427),.UNSPECIFIED.)
CURVE()
GEOMETRIC_REPRESENTATION_ITEM()
RATIONAL_B_SPLINE_CURVE((1.,1.15470053837925,1.))
REPRESENTATION_ITEM($)
);
#28=(
BOUNDED_CURVE()
B_SPLINE_CURVE(2,(#300,#301,#302),.UNSPECIFIED.,.F.,.F.)
B_SPLINE_CURVE_WITH_KNOTS((3,3),(0.,0.321319937971426),.UNSPECIFIED.)
CURVE()
GEOMETRIC_REPRESENTATION_ITEM()
RATIONAL_B_SPLINE_CURVE((1.,1.15470053837925,1.))
REPRESENTATION_ITEM($)
);
#29=(
BOUNDED_CURVE()
B_SPLINE_CURVE(2,(#304,#305,#306),.UNSPECIFIED.,.F.,.F.)
B_SPLINE_CURVE_WITH_KNOTS((3,3),(0.,0.321319937971428),.UNSPECIFIED.)
CURVE()
GEOMETRIC_REPRESENTATION_ITEM()
RATIONAL_B_SPLINE_CURVE((1.,1.15470053837925,1.))
REPRESENTATION_ITEM($)
);
#30=(
BOUNDED_CURVE()
B_SPLINE_CURVE(2,(#307,#308,#309),.UNSPECIFIED.,.F.,.F.)
B_SPLINE_CURVE_WITH_KNOTS((3,3),(0.,0.321319937971427),.UNSPECIFIED.)
CURVE()
GEOMETRIC_REPRESENTATION_ITEM()
RATIONAL_B_SPLINE_CURVE((1.,1.15470053837925,1.))
REPRESENTATION_ITEM($)
);
#31=(
BOUNDED_CURVE()
B_SPLINE_CURVE(2,(#313,#314,#315),.UNSPECIFIED.,.F.,.F.)
B_SPLINE_CURVE_WITH_KNOTS((3,3),(0.,0.321319937971428),.UNSPECIFIED.)
CURVE()
GEOMETRIC_REPRESENTATION_ITEM()
RATIONAL_B_SPLINE_CURVE((1.,1.15470053837926,1.))
REPRESENTATION_ITEM($)
);
#32=(
BOUNDED_CURVE()
B_SPLINE_CURVE(2,(#317,#318,#319),.UNSPECIFIED.,.F.,.F.)
B_SPLINE_CURVE_WITH_KNOTS((3,3),(0.,0.321319937971428),.UNSPECIFIED.)
CURVE()
GEOMETRIC_REPRESENTATION_ITEM()
RATIONAL_B_SPLINE_CURVE((1.,1.15470053837925,1.))
REPRESENTATION_ITEM($)
);
#33=(
BOUNDED_CURVE()
B_SPLINE_CURVE(2,(#321,#322,#323),.UNSPECIFIED.,.F.,.F.)
B_SPLINE_CURVE_WITH_KNOTS((3,3),(0.,0.321319937971428),.UNSPECIFIED.)
CURVE()
GEOMETRIC_REPRESENTATION_ITEM()
RATIONAL_B_SPLINE_CURVE((1.,1.15470053837925,1.))
REPRESENTATION_ITEM($)
);
#34=(
BOUNDED_CURVE()
B_SPLINE_CURVE(2,(#325,#326,#327),.UNSPECIFIED.,.F.,.F.)
B_SPLINE_CURVE_WITH_KNOTS((3,3),(0.,0.321319937971429),.UNSPECIFIED.)
CURVE()
GEOMETRIC_REPRESENTATION_ITEM()
RATIONAL_B_SPLINE_CURVE((1.,1.15470053837926,1.))
REPRESENTATION_ITEM($)
);
#35=(
BOUNDED_CURVE()
B_SPLINE_CURVE(2,(#329,#330,#331),.UNSPECIFIED.,.F.,.F.)
B_SPLINE_CURVE_WITH_KNOTS((3,3),(0.,0.321319937971427),.UNSPECIFIED.)
CURVE()
GEOMETRIC_REPRESENTATION_ITEM()
RATIONAL_B_SPLINE_CURVE((1.,1.15470053837925,1.))
REPRESENTATION_ITEM($)
);
#36=(
BOUNDED_CURVE()
B_SPLINE_CURVE(2,(#332,#333,#334),.UNSPECIFIED.,.F.,.F.)
B_SPLINE_CURVE_WITH_KNOTS((3,3),(0.,0.321319937971428),.UNSPECIFIED.)
CURVE()
GEOMETRIC_REPRESENTATION_ITEM()
RATIONAL_B_SPLINE_CURVE((1.,1.15470053837925,1.))
REPRESENTATION_ITEM($)
);
#37=PLANE($,#207);
#38=PLANE($,#211);
#39=PLANE($,#215);
#40=PLANE($,#216);
#41=PLANE($,#217);
#42=PLANE($,#218);
#43=PLANE($,#219);
#44=PLANE($,#220);
#45=CYLINDRICAL_SURFACE($,#205,1.2295);
#46=FACE_BOUND($,#67,.T.);
#47=FACE_BOUND($,#69,.T.);
#48=FACE_BOUND($,#71,.T.);
#49=FACE_BOUND($,#73,.T.);
#50=FACE_BOUND($,#75,.T.);
#51=FACE_BOUND($,#77,.T.);
#52=FACE_BOUND($,#79,.T.);
#53=FACE_OUTER_BOUND($,#66,.T.);
#54=FACE_OUTER_BOUND($,#68,.T.);
#55=FACE_OUTER_BOUND($,#70,.T.);
#56=FACE_OUTER_BOUND($,#72,.T.);
#57=FACE_OUTER_BOUND($,#74,.T.);
#58=FACE_OUTER_BOUND($,#76,.T.);
#59=FACE_OUTER_BOUND($,#78,.T.);
#60=FACE_OUTER_BOUND($,#80,.T.);
#61=FACE_OUTER_BOUND($,#81,.T.);
#62=FACE_OUTER_BOUND($,#82,.T.);
#63=FACE_OUTER_BOUND($,#83,.T.);
#64=FACE_OUTER_BOUND($,#84,.T.);
#65=FACE_OUTER_BOUND($,#85,.T.);
#66=EDGE_LOOP($,(#134));
#67=EDGE_LOOP($,(#135));
#68=EDGE_LOOP($,(#136));
#69=EDGE_LOOP($,(#137));
#70=EDGE_LOOP($,(#138));
#71=EDGE_LOOP($,(#139));
#72=EDGE_LOOP($,(#140));
#73=EDGE_LOOP($,(#141));
#74=EDGE_LOOP($,(#142));
#75=EDGE_LOOP($,(#143));
#76=EDGE_LOOP($,(#144,#145,#146,#147,#148,#149));
#77=EDGE_LOOP($,(#150));
#78=EDGE_LOOP($,(#151,#152,#153,#154,#155,#156));
#79=EDGE_LOOP($,(#157));
#80=EDGE_LOOP($,(#158,#159,#160,#161));
#81=EDGE_LOOP($,(#162,#163,#164,#165));
#82=EDGE_LOOP($,(#166,#167,#168,#169));
#83=EDGE_LOOP($,(#170,#171,#172,#173));
#84=EDGE_LOOP($,(#174,#175,#176,#177));
#85=EDGE_LOOP($,(#178,#179,#180,#181));
#86=CIRCLE($,#203,1.2295);
#87=CIRCLE($,#204,1.50013293868264);
#88=CIRCLE($,#206,1.2295);
#89=CIRCLE($,#208,2.25);
#90=CIRCLE($,#210,1.50013293868264);
#91=CIRCLE($,#212,2.25);
#92=VERTEX_POINT($,#269);
#93=VERTEX_POINT($,#271);
#94=VERTEX_POINT($,#274);
#95=VERTEX_POINT($,#277);
#96=VERTEX_POINT($,#280);
#97=VERTEX_POINT($,#283);
#98=VERTEX_POINT($,#286);
#99=VERTEX_POINT($,#287);
#100=VERTEX_POINT($,#291);
#101=VERTEX_POINT($,#295);
#102=VERTEX_POINT($,#299);
#103=VERTEX_POINT($,#303);
#104=VERTEX_POINT($,#311);
#105=VERTEX_POINT($,#312);
#106=VERTEX_POINT($,#316);
#107=VERTEX_POINT($,#320);
#108=VERTEX_POINT($,#324);
#109=VERTEX_POINT($,#328);
#110=EDGE_CURVE($,#92,#92,#86,.T.);
#111=EDGE_CURVE($,#93,#93,#87,.T.);
#112=EDGE_CURVE($,#94,#94,#88,.T.);
#113=EDGE_CURVE($,#95,#95,#89,.T.);
#114=EDGE_CURVE($,#96,#96,#90,.T.);
#115=EDGE_CURVE($,#97,#97,#91,.T.);
#116=EDGE_CURVE($,#98,#99,#25,.T.);
#117=EDGE_CURVE($,#100,#98,#26,.T.);
#118=EDGE_CURVE($,#101,#100,#27,.T.);
#119=EDGE_CURVE($,#102,#101,#28,.T.);
#120=EDGE_CURVE($,#103,#102,#29,.T.);
#121=EDGE_CURVE($,#99,#103,#30,.T.);
#122=EDGE_CURVE($,#104,#105,#31,.T.);
#123=EDGE_CURVE($,#106,#104,#32,.T.);
#124=EDGE_CURVE($,#107,#106,#33,.T.);
#125=EDGE_CURVE($,#108,#107,#34,.T.);
#126=EDGE_CURVE($,#109,#108,#35,.T.);
#127=EDGE_CURVE($,#105,#109,#36,.T.);
#128=EDGE_CURVE($,#100,#105,#13,.T.);
#129=EDGE_CURVE($,#101,#109,#14,.T.);
#130=EDGE_CURVE($,#102,#108,#15,.T.);
#131=EDGE_CURVE($,#98,#104,#16,.T.);
#132=EDGE_CURVE($,#99,#106,#17,.T.);
#133=EDGE_CURVE($,#103,#107,#18,.T.);
#134=ORIENTED_EDGE($,*,*,#110,.T.);
#135=ORIENTED_EDGE($,*,*,#111,.T.);
#136=ORIENTED_EDGE($,*,*,#112,.F.);
#137=ORIENTED_EDGE($,*,*,#110,.F.);
#138=ORIENTED_EDGE($,*,*,#113,.T.);
#139=ORIENTED_EDGE($,*,*,#111,.F.);
#140=ORIENTED_EDGE($,*,*,#112,.T.);
#141=ORIENTED_EDGE($,*,*,#114,.T.);
#142=ORIENTED_EDGE($,*,*,#115,.T.);
#143=ORIENTED_EDGE($,*,*,#114,.F.);
#144=ORIENTED_EDGE($,*,*,#116,.F.);
#145=ORIENTED_EDGE($,*,*,#117,.F.);
#146=ORIENTED_EDGE($,*,*,#118,.F.);
#147=ORIENTED_EDGE($,*,*,#119,.F.);
#148=ORIENTED_EDGE($,*,*,#120,.F.);
#149=ORIENTED_EDGE($,*,*,#121,.F.);
#150=ORIENTED_EDGE($,*,*,#113,.F.);
#151=ORIENTED_EDGE($,*,*,#122,.F.);
#152=ORIENTED_EDGE($,*,*,#123,.F.);
#153=ORIENTED_EDGE($,*,*,#124,.F.);
#154=ORIENTED_EDGE($,*,*,#125,.F.);
#155=ORIENTED_EDGE($,*,*,#126,.F.);
#156=ORIENTED_EDGE($,*,*,#127,.F.);
#157=ORIENTED_EDGE($,*,*,#115,.F.);
#158=ORIENTED_EDGE($,*,*,#118,.T.);
#159=ORIENTED_EDGE($,*,*,#128,.T.);
#160=ORIENTED_EDGE($,*,*,#127,.T.);
#161=ORIENTED_EDGE($,*,*,#129,.F.);
#162=ORIENTED_EDGE($,*,*,#119,.T.);
#163=ORIENTED_EDGE($,*,*,#129,.T.);
#164=ORIENTED_EDGE($,*,*,#126,.T.);
#165=ORIENTED_EDGE($,*,*,#130,.F.);
#166=ORIENTED_EDGE($,*,*,#117,.T.);
#167=ORIENTED_EDGE($,*,*,#131,.T.);
#168=ORIENTED_EDGE($,*,*,#122,.T.);
#169=ORIENTED_EDGE($,*,*,#128,.F.);
#170=ORIENTED_EDGE($,*,*,#116,.T.);
#171=ORIENTED_EDGE($,*,*,#132,.T.);
#172=ORIENTED_EDGE($,*,*,#123,.T.);
#173=ORIENTED_EDGE($,*,*,#131,.F.);
#174=ORIENTED_EDGE($,*,*,#120,.T.);
#175=ORIENTED_EDGE($,*,*,#130,.T.);
#176=ORIENTED_EDGE($,*,*,#125,.T.);
#177=ORIENTED_EDGE($,*,*,#133,.F.);
#178=ORIENTED_EDGE($,*,*,#121,.T.);
#179=ORIENTED_EDGE($,*,*,#133,.T.);
#180=ORIENTED_EDGE($,*,*,#124,.T.);
#181=ORIENTED_EDGE($,*,*,#132,.F.);
#182=CONICAL_SURFACE($,#202,1.36481646934132,60.);
#183=CONICAL_SURFACE($,#209,1.36481646934132,60.);
#184=CONICAL_SURFACE($,#213,2.71271324027147,60.);
#185=CONICAL_SURFACE($,#214,2.71271324027147,60.);
#186=ADVANCED_FACE($,(#53,#46),#182,.F.);
#187=ADVANCED_FACE($,(#54,#47),#45,.F.);
#188=ADVANCED_FACE($,(#55,#48),#37,.F.);
#189=ADVANCED_FACE($,(#56,#49),#183,.F.);
#190=ADVANCED_FACE($,(#57,#50),#38,.T.);
#191=ADVANCED_FACE($,(#58,#51),#184,.T.);
#192=ADVANCED_FACE($,(#59,#52),#185,.T.);
#193=ADVANCED_FACE($,(#60),#39,.T.);
#194=ADVANCED_FACE($,(#61),#40,.T.);
#195=ADVANCED_FACE($,(#62),#41,.T.);
#196=ADVANCED_FACE($,(#63),#42,.T.);
#197=ADVANCED_FACE($,(#64),#43,.T.);
#198=ADVANCED_FACE($,(#65),#44,.T.);
#199=CLOSED_SHELL($,(#186,#187,#188,#189,#190,#191,#192,#193,#194,#195,
#196,#197,#198));
#200=MANIFOLD_SOLID_BREP('Solid1',#199);
#201=AXIS2_PLACEMENT_3D('placement',#267,#221,#222);
#202=AXIS2_PLACEMENT_3D($,#268,#223,#224);
#203=AXIS2_PLACEMENT_3D($,#270,#225,#226);
#204=AXIS2_PLACEMENT_3D($,#272,#227,#228);
#205=AXIS2_PLACEMENT_3D($,#273,#229,#230);
#206=AXIS2_PLACEMENT_3D($,#275,#231,#232);
#207=AXIS2_PLACEMENT_3D($,#276,#233,#234);
#208=AXIS2_PLACEMENT_3D($,#278,#235,#236);
#209=AXIS2_PLACEMENT_3D($,#279,#237,#238);
#210=AXIS2_PLACEMENT_3D($,#281,#239,#240);
#211=AXIS2_PLACEMENT_3D($,#282,#241,#242);
#212=AXIS2_PLACEMENT_3D($,#284,#243,#244);
#213=AXIS2_PLACEMENT_3D($,#285,#245,#246);
#214=AXIS2_PLACEMENT_3D($,#310,#247,#248);
#215=AXIS2_PLACEMENT_3D($,#335,#249,#250);
#216=AXIS2_PLACEMENT_3D($,#338,#253,#254);
#217=AXIS2_PLACEMENT_3D($,#340,#256,#257);
#218=AXIS2_PLACEMENT_3D($,#342,#259,#260);
#219=AXIS2_PLACEMENT_3D($,#344,#262,#263);
#220=AXIS2_PLACEMENT_3D($,#346,#265,#266);
#221=DIRECTION('axis',(0.,0.,1.));
#222=DIRECTION('refdir',(1.,0.,0.));
#223=DIRECTION('center_axis',(-1.,0.,0.));
#224=DIRECTION('ref_axis',(0.,0.,-1.));
#225=DIRECTION('center_axis',(1.,0.,0.));
#226=DIRECTION('ref_axis',(0.,0.,-1.));
#227=DIRECTION('center_axis',(-1.,0.,0.));
#228=DIRECTION('ref_axis',(0.,0.,-1.));
#229=DIRECTION('center_axis',(1.,0.,0.));
#230=DIRECTION('ref_axis',(0.,0.,-1.));
#231=DIRECTION('center_axis',(-1.,0.,0.));
#232=DIRECTION('ref_axis',(0.,0.,1.));
#233=DIRECTION('center_axis',(1.,0.,0.));
#234=DIRECTION('ref_axis',(0.,0.,-1.));
#235=DIRECTION('center_axis',(-1.,0.,0.));
#236=DIRECTION('ref_axis',(0.,1.,0.));
#237=DIRECTION('center_axis',(1.,0.,0.));
#238=DIRECTION('ref_axis',(0.,0.,1.));
#239=DIRECTION('center_axis',(1.,0.,0.));
#240=DIRECTION('ref_axis',(0.,0.,1.));
#241=DIRECTION('center_axis',(1.,0.,0.));
#242=DIRECTION('ref_axis',(0.,0.,-1.));
#243=DIRECTION('center_axis',(1.,0.,0.));
#244=DIRECTION('ref_axis',(-3.49754953736231E-016,1.,0.));
#245=DIRECTION('center_axis',(1.,0.,0.));
#246=DIRECTION('ref_axis',(0.,1.,0.));
#247=DIRECTION('center_axis',(-1.,0.,0.));
#248=DIRECTION('ref_axis',(-3.49754953736231E-016,1.,0.));
#249=DIRECTION('center_axis',(0.,0.866025403784439,-0.499999999999999));
#250=DIRECTION('ref_axis',(0.,0.499999999999999,0.866025403784439));
#251=DIRECTION($,(1.,0.,0.));
#252=DIRECTION($,(1.,0.,0.));
#253=DIRECTION('center_axis',(0.,2.27259226572603E-015,-1.));
#254=DIRECTION('ref_axis',(-1.,0.,0.));
#255=DIRECTION($,(1.,0.,0.));
#256=DIRECTION('center_axis',(0.,0.866025403784438,0.5));
#257=DIRECTION('ref_axis',(1.,0.,0.));
#258=DIRECTION($,(1.,0.,0.));
#259=DIRECTION('center_axis',(0.,0.,1.));
#260=DIRECTION('ref_axis',(1.,0.,0.));
#261=DIRECTION($,(1.,0.,0.));
#262=DIRECTION('center_axis',(0.,-0.866025403784438,-0.500000000000001));
#263=DIRECTION('ref_axis',(-1.,0.,0.));
#264=DIRECTION($,(1.,0.,0.));
#265=DIRECTION('center_axis',(0.,-0.866025403784439,0.5));
#266=DIRECTION('ref_axis',(0.,-0.5,-0.866025403784439));
#267=CARTESIAN_POINT('',(0.,0.,0.));
#268=CARTESIAN_POINT('Origin',(0.078125,0.,0.));
#269=CARTESIAN_POINT('',(0.15625,-1.50570323955167E-016,1.2295));
#270=CARTESIAN_POINT('Origin',(0.15625,0.,0.));
#271=CARTESIAN_POINT('',(0.,1.8371330016532E-016,1.50013293868264));
#272=CARTESIAN_POINT('Origin',(0.,0.,0.));
#273=CARTESIAN_POINT('Origin',(-6.33746721500765,0.,0.));
#274=CARTESIAN_POINT('',(2.24375,-1.50570323955167E-016,-1.2295));
#275=CARTESIAN_POINT('Origin',(2.24375,0.,0.));
#276=CARTESIAN_POINT('Origin',(0.,2.08166817117217E-016,-6.93889390390723E-017));
#277=CARTESIAN_POINT('',(0.,2.25,0.));
#278=CARTESIAN_POINT('Origin',(0.,0.,0.));
#279=CARTESIAN_POINT('Origin',(2.321875,0.,0.));
#280=CARTESIAN_POINT('',(2.4,1.8371330016532E-016,-1.50013293868264));
#281=CARTESIAN_POINT('Origin',(2.4,0.,0.));
#282=CARTESIAN_POINT('Origin',(2.4,1.87139865893256E-016,-2.08166817117217E-016));
#283=CARTESIAN_POINT('',(2.4,2.25,0.));
#284=CARTESIAN_POINT('Origin',(2.4,0.,0.));
#285=CARTESIAN_POINT('Origin',(0.267147613828337,0.,0.));
#286=CARTESIAN_POINT('',(0.534295227656675,1.58771324027147,2.75));
#287=CARTESIAN_POINT('',(0.534295227656675,-1.58771324027147,2.75));
#288=CARTESIAN_POINT('Ctrl Pts',(0.534295227656675,1.58771324027147,2.75));
#289=CARTESIAN_POINT('Ctrl Pts',(0.0759618943233427,0.,2.75));
#290=CARTESIAN_POINT('Ctrl Pts',(0.534295227656675,-1.58771324027147,2.75));
#291=CARTESIAN_POINT('',(0.534295227656675,3.17542648054294,0.));
#292=CARTESIAN_POINT('Ctrl Pts',(0.534295227656675,3.17542648054294,1.13714660176599E-015));
#293=CARTESIAN_POINT('Ctrl Pts',(0.0759618943233417,2.38156986040721,1.375));
#294=CARTESIAN_POINT('Ctrl Pts',(0.534295227656675,1.58771324027147,2.75));
#295=CARTESIAN_POINT('',(0.534295227656675,1.58771324027148,-2.75));
#296=CARTESIAN_POINT('Ctrl Pts',(0.534295227656675,1.58771324027148,-2.75));
#297=CARTESIAN_POINT('Ctrl Pts',(0.0759618943233435,2.38156986040721,-1.375));
#298=CARTESIAN_POINT('Ctrl Pts',(0.534295227656675,3.17542648054294,2.11184368899397E-015));
#299=CARTESIAN_POINT('',(0.534295227656675,-1.58771324027146,-2.75000000000001));
#300=CARTESIAN_POINT('Ctrl Pts',(0.534295227656675,-1.58771324027146,-2.75000000000001));
#301=CARTESIAN_POINT('Ctrl Pts',(0.0759618943233449,5.19575052629571E-015,
-2.75));
#302=CARTESIAN_POINT('Ctrl Pts',(0.534295227656675,1.58771324027147,-2.75));
#303=CARTESIAN_POINT('',(0.534295227656675,-3.17542648054294,1.66533453693773E-015));
#304=CARTESIAN_POINT('Ctrl Pts',(0.534295227656675,-3.17542648054294,1.62449514537998E-015));
#305=CARTESIAN_POINT('Ctrl Pts',(0.0759618943233398,-2.3815698604072,-1.375));
#306=CARTESIAN_POINT('Ctrl Pts',(0.534295227656675,-1.58771324027147,-2.75));
#307=CARTESIAN_POINT('Ctrl Pts',(0.534295227656675,-1.58771324027147,2.75));
#308=CARTESIAN_POINT('Ctrl Pts',(0.0759618943233425,-2.38156986040721,1.375));
#309=CARTESIAN_POINT('Ctrl Pts',(0.534295227656675,-3.17542648054294,6.49798058151992E-016));
#310=CARTESIAN_POINT('Origin',(2.13285238617166,0.,0.));
#311=CARTESIAN_POINT('',(1.86570477234332,1.58771324027147,2.75));
#312=CARTESIAN_POINT('',(1.86570477234332,3.17542648054294,0.));
#313=CARTESIAN_POINT('Ctrl Pts',(1.86570477234332,1.58771324027147,2.75));
#314=CARTESIAN_POINT('Ctrl Pts',(2.32403810567666,2.38156986040721,1.375));
#315=CARTESIAN_POINT('Ctrl Pts',(1.86570477234332,3.17542648054294,-4.87348543613994E-016));
#316=CARTESIAN_POINT('',(1.86570477234332,-1.58771324027147,2.75));
#317=CARTESIAN_POINT('Ctrl Pts',(1.86570477234332,-1.58771324027147,2.75));
#318=CARTESIAN_POINT('Ctrl Pts',(2.32403810567666,0.,2.75));
#319=CARTESIAN_POINT('Ctrl Pts',(1.86570477234332,1.58771324027147,2.75));
#320=CARTESIAN_POINT('',(1.86570477234332,-3.17542648054294,2.77555756156289E-016));
#321=CARTESIAN_POINT('Ctrl Pts',(1.86570477234332,-3.17542648054294,-1.46204563084198E-015));
#322=CARTESIAN_POINT('Ctrl Pts',(2.32403810567666,-2.38156986040721,1.375));
#323=CARTESIAN_POINT('Ctrl Pts',(1.86570477234332,-1.58771324027147,2.75));
#324=CARTESIAN_POINT('',(1.86570477234332,-1.58771324027146,-2.75000000000001));
#325=CARTESIAN_POINT('Ctrl Pts',(1.86570477234332,-1.58771324027146,-2.75000000000001));
#326=CARTESIAN_POINT('Ctrl Pts',(2.32403810567666,-2.3815698604072,-1.375));
#327=CARTESIAN_POINT('Ctrl Pts',(1.86570477234332,-3.17542648054294,3.08654077622197E-015));
#328=CARTESIAN_POINT('',(1.86570477234332,1.58771324027148,-2.74999999999999));
#329=CARTESIAN_POINT('Ctrl Pts',(1.86570477234332,1.58771324027148,-2.75));
#330=CARTESIAN_POINT('Ctrl Pts',(2.32403810567666,6.10622663543836E-015,
-2.75));
#331=CARTESIAN_POINT('Ctrl Pts',(1.86570477234332,-1.58771324027146,-2.75000000000001));
#332=CARTESIAN_POINT('Ctrl Pts',(1.86570477234332,3.17542648054294,5.52328349429194E-015));
#333=CARTESIAN_POINT('Ctrl Pts',(2.32403810567666,2.38156986040721,-1.375));
#334=CARTESIAN_POINT('Ctrl Pts',(1.86570477234332,1.58771324027148,-2.75));
#335=CARTESIAN_POINT('Origin',(0.,3.17542648054294,2.00031939987529E-015));
#336=CARTESIAN_POINT($,(0.,3.17542648054294,2.00031939987529E-015));
#337=CARTESIAN_POINT($,(0.,1.58771324027148,-2.75));
#338=CARTESIAN_POINT('Origin',(0.,1.58771324027148,-2.75));
#339=CARTESIAN_POINT($,(0.,-1.58771324027146,-2.75000000000001));
#340=CARTESIAN_POINT('Origin',(0.,1.58771324027147,2.75));
#341=CARTESIAN_POINT($,(0.,1.58771324027147,2.75));
#342=CARTESIAN_POINT('Origin',(0.,-1.58771324027147,2.75));
#343=CARTESIAN_POINT($,(0.,-1.58771324027147,2.75));
#344=CARTESIAN_POINT('Origin',(0.,-1.58771324027146,-2.75000000000001));
#345=CARTESIAN_POINT($,(0.,-3.17542648054294,1.29523308153465E-015));
#346=CARTESIAN_POINT('Origin',(0.,-3.17542648054294,1.29523308153465E-015));
#347=UNCERTAINTY_MEASURE_WITH_UNIT(LENGTH_MEASURE(0.01),#349,
'DISTANCE_ACCURACY_VALUE',
'Maximum model space distance between geometric entities at asserted c
onnectivities');
#348=(
GEOMETRIC_REPRESENTATION_CONTEXT(3)
GLOBAL_UNCERTAINTY_ASSIGNED_CONTEXT((#347))
GLOBAL_UNIT_ASSIGNED_CONTEXT((#349,#352,#350))
REPRESENTATION_CONTEXT('','3D')
);
#349=(
LENGTH_UNIT()
NAMED_UNIT(*)
SI_UNIT(.MILLI.,.METRE.)
);
#350=(
NAMED_UNIT(*)
SI_UNIT($,.STERADIAN.)
SOLID_ANGLE_UNIT()
);
#351=DIMENSIONAL_EXPONENTS(0.,0.,0.,0.,0.,0.,0.);
#352=(
CONVERSION_BASED_UNIT('degree',#354)
NAMED_UNIT(#351)
PLANE_ANGLE_UNIT()
);
#353=(
NAMED_UNIT(*)
PLANE_ANGLE_UNIT()
SI_UNIT($,.RADIAN.)
);
#354=PLANE_ANGLE_MEASURE_WITH_UNIT(PLANE_ANGLE_MEASURE(0.01745329252),#353);
#355=SHAPE_DEFINITION_REPRESENTATION(#356,#357);
#356=PRODUCT_DEFINITION_SHAPE('',$,#359);
#357=SHAPE_REPRESENTATION('',(#201),#348);
#358=PRODUCT_DEFINITION_CONTEXT('3D Mechanical Parts',#362,'design');
#359=PRODUCT_DEFINITION(
'10834_KriTec_Sechskantmutter_VA_rostfrei_DIN_934_M3',
'10834_KriTec_Sechskantmutter_VA_rostfrei_DIN_934_M3',#360,#358);
#360=PRODUCT_DEFINITION_FORMATION('',$,#364);
#361=APPLICATION_PROTOCOL_DEFINITION('international standard',
'automotive_design',2009,#362);
#362=APPLICATION_CONTEXT(
'Core Data for Automotive Mechanical Design Process');
#363=PRODUCT_CONTEXT('3D Mechanical Parts',#362,'mechanical');
#364=PRODUCT('10834_KriTec_Sechskantmutter_VA_rostfrei_DIN_934_M3',
'10834_KriTec_Sechskantmutter_VA_rostfrei_DIN_934_M3',$,(#363));
#365=PRESENTATION_STYLE_ASSIGNMENT((#366));
#366=SURFACE_STYLE_USAGE(.BOTH.,#367);
#367=SURFACE_SIDE_STYLE($,(#368));
#368=SURFACE_STYLE_FILL_AREA(#369);
#369=FILL_AREA_STYLE($,(#370));
#370=FILL_AREA_STYLE_COLOUR($,#371);
#371=COLOUR_RGB('',0.831372549019608,0.831372549019608,0.831372549019608);
ENDSEC;
END-ISO-10303-21;
