ISO-10303-21;
HEADER;
/* Generated by software containing ST-Developer
 * from STEP Tools, Inc. (www.steptools.com) 
 */

FILE_DESCRIPTION(
/* description */ (''),
/* implementation_level */ '2;1');

FILE_NAME(
/* name */ 
'S:\\Bilder_neu\\10744_KriTec_Gummipuffer_30x30_M8_Einschraubplatte be
idseitig\\Inventordateien\\10744_KriTec_Gummipuffer_30x30_M8_Einschrau
bplatte_beidseitig.stp',
/* time_stamp */ '2017-06-22T14:49:38+02:00',
/* author */ ('kostic'),
/* organization */ (''),
/* preprocessor_version */ 'ST-DEVELOPER v16.1',
/* originating_system */ 'Autodesk Inventor 2016',
/* authorisation */ '');

FILE_SCHEMA (('AUTOMOTIVE_DESIGN { 1 0 10303 214 3 1 1 }'));
ENDSEC;

DATA;
#10=MECHANICAL_DESIGN_GEOMETRIC_PRESENTATION_REPRESENTATION('',(#17,#18,
#19,#20,#21,#22),#214);
#11=SHAPE_REPRESENTATION_RELATIONSHIP('SRR','None',#223,#12);
#12=ADVANCED_BREP_SHAPE_REPRESENTATION('',(#13),#213);
#13=MANIFOLD_SOLID_BREP('Volumenk\X\F6rper1',#121);
#14=PLANE('',#132);
#15=PLANE('',#140);
#16=PLANE('',#141);
#17=STYLED_ITEM('',(#233),#113);
#18=STYLED_ITEM('',(#233),#114);
#19=STYLED_ITEM('',(#234),#115);
#20=STYLED_ITEM('',(#235),#118);
#21=STYLED_ITEM('',(#234),#120);
#22=STYLED_ITEM('',(#232),#13);
#23=FACE_BOUND('',#47,.T.);
#24=FACE_BOUND('',#49,.T.);
#25=FACE_BOUND('',#51,.T.);
#26=FACE_BOUND('',#53,.T.);
#27=FACE_BOUND('',#56,.T.);
#28=FACE_BOUND('',#58,.T.);
#29=FACE_BOUND('',#60,.T.);
#30=FACE_BOUND('',#62,.T.);
#31=CYLINDRICAL_SURFACE('',#125,3.3235);
#32=CYLINDRICAL_SURFACE('',#130,2.9585);
#33=CYLINDRICAL_SURFACE('',#135,14.9);
#34=CYLINDRICAL_SURFACE('',#137,15.);
#35=FACE_OUTER_BOUND('',#45,.T.);
#36=FACE_OUTER_BOUND('',#46,.T.);
#37=FACE_OUTER_BOUND('',#48,.T.);
#38=FACE_OUTER_BOUND('',#50,.T.);
#39=FACE_OUTER_BOUND('',#52,.T.);
#40=FACE_OUTER_BOUND('',#54,.T.);
#41=FACE_OUTER_BOUND('',#55,.T.);
#42=FACE_OUTER_BOUND('',#57,.T.);
#43=FACE_OUTER_BOUND('',#59,.T.);
#44=FACE_OUTER_BOUND('',#61,.T.);
#45=EDGE_LOOP('',(#90));
#46=EDGE_LOOP('',(#91));
#47=EDGE_LOOP('',(#92));
#48=EDGE_LOOP('',(#93));
#49=EDGE_LOOP('',(#94));
#50=EDGE_LOOP('',(#95));
#51=EDGE_LOOP('',(#96));
#52=EDGE_LOOP('',(#97));
#53=EDGE_LOOP('',(#98));
#54=EDGE_LOOP('',(#99));
#55=EDGE_LOOP('',(#100));
#56=EDGE_LOOP('',(#101));
#57=EDGE_LOOP('',(#102));
#58=EDGE_LOOP('',(#103));
#59=EDGE_LOOP('',(#104));
#60=EDGE_LOOP('',(#105));
#61=EDGE_LOOP('',(#106));
#62=EDGE_LOOP('',(#107));
#63=CIRCLE('',#124,3.3235);
#64=CIRCLE('',#126,3.3235);
#65=CIRCLE('',#128,2.9585);
#66=CIRCLE('',#129,3.4585);
#67=CIRCLE('',#131,2.9585);
#68=CIRCLE('',#133,14.9);
#69=CIRCLE('',#136,14.9);
#70=CIRCLE('',#138,15.);
#71=CIRCLE('',#139,15.);
#72=VERTEX_POINT('',#184);
#73=VERTEX_POINT('',#187);
#74=VERTEX_POINT('',#190);
#75=VERTEX_POINT('',#192);
#76=VERTEX_POINT('',#195);
#77=VERTEX_POINT('',#198);
#78=VERTEX_POINT('',#202);
#79=VERTEX_POINT('',#205);
#80=VERTEX_POINT('',#207);
#81=EDGE_CURVE('',#72,#72,#63,.T.);
#82=EDGE_CURVE('',#73,#73,#64,.T.);
#83=EDGE_CURVE('',#74,#74,#65,.T.);
#84=EDGE_CURVE('',#75,#75,#66,.T.);
#85=EDGE_CURVE('',#76,#76,#67,.T.);
#86=EDGE_CURVE('',#77,#77,#68,.T.);
#87=EDGE_CURVE('',#78,#78,#69,.T.);
#88=EDGE_CURVE('',#79,#79,#70,.T.);
#89=EDGE_CURVE('',#80,#80,#71,.T.);
#90=ORIENTED_EDGE('',*,*,#81,.T.);
#91=ORIENTED_EDGE('',*,*,#82,.F.);
#92=ORIENTED_EDGE('',*,*,#81,.F.);
#93=ORIENTED_EDGE('',*,*,#83,.T.);
#94=ORIENTED_EDGE('',*,*,#84,.T.);
#95=ORIENTED_EDGE('',*,*,#85,.F.);
#96=ORIENTED_EDGE('',*,*,#83,.F.);
#97=ORIENTED_EDGE('',*,*,#86,.T.);
#98=ORIENTED_EDGE('',*,*,#84,.F.);
#99=ORIENTED_EDGE('',*,*,#85,.T.);
#100=ORIENTED_EDGE('',*,*,#86,.F.);
#101=ORIENTED_EDGE('',*,*,#87,.F.);
#102=ORIENTED_EDGE('',*,*,#88,.T.);
#103=ORIENTED_EDGE('',*,*,#89,.F.);
#104=ORIENTED_EDGE('',*,*,#88,.F.);
#105=ORIENTED_EDGE('',*,*,#87,.T.);
#106=ORIENTED_EDGE('',*,*,#89,.T.);
#107=ORIENTED_EDGE('',*,*,#82,.T.);
#108=CONICAL_SURFACE('',#123,1.66175,59.);
#109=CONICAL_SURFACE('',#127,3.2085,45.0000000000001);
#110=CONICAL_SURFACE('',#134,1.47925,59.);
#111=ADVANCED_FACE('',(#35),#108,.F.);
#112=ADVANCED_FACE('',(#36,#23),#31,.F.);
#113=ADVANCED_FACE('',(#37,#24),#109,.F.);
#114=ADVANCED_FACE('',(#38,#25),#32,.F.);
#115=ADVANCED_FACE('',(#39,#26),#14,.F.);
#116=ADVANCED_FACE('',(#40),#110,.F.);
#117=ADVANCED_FACE('',(#41,#27),#33,.F.);
#118=ADVANCED_FACE('',(#42,#28),#34,.T.);
#119=ADVANCED_FACE('',(#43,#29),#15,.F.);
#120=ADVANCED_FACE('',(#44,#30),#16,.T.);
#121=CLOSED_SHELL('',(#111,#112,#113,#114,#115,#116,#117,#118,#119,#120));
#122=AXIS2_PLACEMENT_3D('placement',#182,#142,#143);
#123=AXIS2_PLACEMENT_3D('',#183,#144,#145);
#124=AXIS2_PLACEMENT_3D('',#185,#146,#147);
#125=AXIS2_PLACEMENT_3D('',#186,#148,#149);
#126=AXIS2_PLACEMENT_3D('',#188,#150,#151);
#127=AXIS2_PLACEMENT_3D('',#189,#152,#153);
#128=AXIS2_PLACEMENT_3D('',#191,#154,#155);
#129=AXIS2_PLACEMENT_3D('',#193,#156,#157);
#130=AXIS2_PLACEMENT_3D('',#194,#158,#159);
#131=AXIS2_PLACEMENT_3D('',#196,#160,#161);
#132=AXIS2_PLACEMENT_3D('',#197,#162,#163);
#133=AXIS2_PLACEMENT_3D('',#199,#164,#165);
#134=AXIS2_PLACEMENT_3D('',#200,#166,#167);
#135=AXIS2_PLACEMENT_3D('',#201,#168,#169);
#136=AXIS2_PLACEMENT_3D('',#203,#170,#171);
#137=AXIS2_PLACEMENT_3D('',#204,#172,#173);
#138=AXIS2_PLACEMENT_3D('',#206,#174,#175);
#139=AXIS2_PLACEMENT_3D('',#208,#176,#177);
#140=AXIS2_PLACEMENT_3D('',#209,#178,#179);
#141=AXIS2_PLACEMENT_3D('',#210,#180,#181);
#142=DIRECTION('axis',(0.,0.,1.));
#143=DIRECTION('refdir',(1.,0.,0.));
#144=DIRECTION('center_axis',(0.,0.,-1.));
#145=DIRECTION('ref_axis',(-1.,0.,0.));
#146=DIRECTION('center_axis',(0.,0.,-1.));
#147=DIRECTION('ref_axis',(-1.,0.,0.));
#148=DIRECTION('center_axis',(0.,0.,-1.));
#149=DIRECTION('ref_axis',(-1.,0.,0.));
#150=DIRECTION('center_axis',(0.,0.,1.));
#151=DIRECTION('ref_axis',(-1.,0.,0.));
#152=DIRECTION('center_axis',(0.,0.,1.));
#153=DIRECTION('ref_axis',(-1.,0.,0.));
#154=DIRECTION('center_axis',(0.,0.,-1.));
#155=DIRECTION('ref_axis',(-1.,0.,0.));
#156=DIRECTION('center_axis',(0.,0.,1.));
#157=DIRECTION('ref_axis',(-1.,0.,0.));
#158=DIRECTION('center_axis',(0.,0.,1.));
#159=DIRECTION('ref_axis',(1.,0.,0.));
#160=DIRECTION('center_axis',(0.,0.,1.));
#161=DIRECTION('ref_axis',(1.,0.,0.));
#162=DIRECTION('center_axis',(0.,0.,-1.));
#163=DIRECTION('ref_axis',(-1.,0.,0.));
#164=DIRECTION('center_axis',(0.,0.,1.));
#165=DIRECTION('ref_axis',(-1.,0.,0.));
#166=DIRECTION('center_axis',(0.,0.,1.));
#167=DIRECTION('ref_axis',(1.,0.,0.));
#168=DIRECTION('center_axis',(0.,0.,-1.));
#169=DIRECTION('ref_axis',(-1.,0.,0.));
#170=DIRECTION('center_axis',(0.,0.,-1.));
#171=DIRECTION('ref_axis',(-1.,0.,0.));
#172=DIRECTION('center_axis',(0.,0.,1.));
#173=DIRECTION('ref_axis',(-1.,0.,0.));
#174=DIRECTION('center_axis',(0.,0.,-1.));
#175=DIRECTION('ref_axis',(-1.,0.,0.));
#176=DIRECTION('center_axis',(0.,0.,-1.));
#177=DIRECTION('ref_axis',(-1.,0.,0.));
#178=DIRECTION('center_axis',(0.,0.,-1.));
#179=DIRECTION('ref_axis',(-1.,0.,0.));
#180=DIRECTION('center_axis',(0.,0.,-1.));
#181=DIRECTION('ref_axis',(-1.,0.,0.));
#182=CARTESIAN_POINT('',(0.,0.,0.));
#183=CARTESIAN_POINT('Origin',(-2.27848097870622,6.13924053122606,8.99848013366905));
#184=CARTESIAN_POINT('',(-5.60198097870622,6.13924053122606,8.));
#185=CARTESIAN_POINT('Origin',(-2.27848097870622,6.13924053122606,8.));
#186=CARTESIAN_POINT('Origin',(-2.27848097870622,6.13924053122606,4.));
#187=CARTESIAN_POINT('',(-5.60198097870622,6.13924053122606,0.));
#188=CARTESIAN_POINT('Origin',(-2.27848097870622,6.13924053122606,0.));
#189=CARTESIAN_POINT('Origin',(-2.27848097870622,6.13924053122606,29.74));
#190=CARTESIAN_POINT('',(0.680019021293783,6.13924053122606,29.49));
#191=CARTESIAN_POINT('Origin',(-2.27848097870622,6.13924053122606,29.49));
#192=CARTESIAN_POINT('',(1.18001902129378,6.13924053122606,29.99));
#193=CARTESIAN_POINT('Origin',(-2.27848097870622,6.13924053122606,29.99));
#194=CARTESIAN_POINT('Origin',(-2.27848097870622,6.13924053122606,25.99));
#195=CARTESIAN_POINT('',(0.680019021293783,6.13924053122606,21.99));
#196=CARTESIAN_POINT('Origin',(-2.27848097870622,6.13924053122606,21.99));
#197=CARTESIAN_POINT('Origin',(-2.27848097870622,6.13924053122606,29.99));
#198=CARTESIAN_POINT('',(12.6215190212938,6.13924053122606,29.99));
#199=CARTESIAN_POINT('Origin',(-2.27848097870622,6.13924053122606,29.99));
#200=CARTESIAN_POINT('Origin',(-2.27848097870622,6.13924053122606,21.1011769293035));
#201=CARTESIAN_POINT('Origin',(-2.27848097870622,6.13924053122606,30.));
#202=CARTESIAN_POINT('',(12.6215190212938,6.13924053122606,30.));
#203=CARTESIAN_POINT('Origin',(-2.27848097870622,6.13924053122606,30.));
#204=CARTESIAN_POINT('Origin',(-2.27848097870622,6.13924053122606,0.));
#205=CARTESIAN_POINT('',(12.7215190212938,6.13924053122606,30.));
#206=CARTESIAN_POINT('Origin',(-2.27848097870622,6.13924053122606,30.));
#207=CARTESIAN_POINT('',(12.7215190212938,6.13924053122606,0.));
#208=CARTESIAN_POINT('Origin',(-2.27848097870622,6.13924053122606,0.));
#209=CARTESIAN_POINT('Origin',(-2.27848097870622,6.13924053122606,30.));
#210=CARTESIAN_POINT('Origin',(-2.27848097870622,6.13924053122606,0.));
#211=UNCERTAINTY_MEASURE_WITH_UNIT(LENGTH_MEASURE(0.01),#215,
'DISTANCE_ACCURACY_VALUE',
'Maximum model space distance between geometric entities at asserted c
onnectivities');
#212=UNCERTAINTY_MEASURE_WITH_UNIT(LENGTH_MEASURE(1.E-6),#215,
'DISTANCE_ACCURACY_VALUE',
'Maximum model space distance between geometric entities at asserted c
onnectivities');
#213=(
GEOMETRIC_REPRESENTATION_CONTEXT(3)
GLOBAL_UNCERTAINTY_ASSIGNED_CONTEXT((#211))
GLOBAL_UNIT_ASSIGNED_CONTEXT((#215,#218,#216))
REPRESENTATION_CONTEXT('','3D')
);
#214=(
GEOMETRIC_REPRESENTATION_CONTEXT(3)
GLOBAL_UNCERTAINTY_ASSIGNED_CONTEXT((#212))
GLOBAL_UNIT_ASSIGNED_CONTEXT((#215,#218,#216))
REPRESENTATION_CONTEXT('','3D')
);
#215=(
LENGTH_UNIT()
NAMED_UNIT(*)
SI_UNIT(.MILLI.,.METRE.)
);
#216=(
NAMED_UNIT(*)
SI_UNIT($,.STERADIAN.)
SOLID_ANGLE_UNIT()
);
#217=DIMENSIONAL_EXPONENTS(0.,0.,0.,0.,0.,0.,0.);
#218=(
CONVERSION_BASED_UNIT('degree',#220)
NAMED_UNIT(#217)
PLANE_ANGLE_UNIT()
);
#219=(
NAMED_UNIT(*)
PLANE_ANGLE_UNIT()
SI_UNIT($,.RADIAN.)
);
#220=PLANE_ANGLE_MEASURE_WITH_UNIT(PLANE_ANGLE_MEASURE(0.01745329252),#219);
#221=SHAPE_DEFINITION_REPRESENTATION(#222,#223);
#222=PRODUCT_DEFINITION_SHAPE('',$,#225);
#223=SHAPE_REPRESENTATION('',(#122),#213);
#224=PRODUCT_DEFINITION_CONTEXT('part definition',#229,'design');
#225=PRODUCT_DEFINITION(
'10744_KriTec_Gummipuffer_30x30_M8_Einschraubplatte_beidseitig',
'10744_KriTec_Gummipuffer_30x30_M8_Einschraubplatte_beidseitig',#226,#224);
#226=PRODUCT_DEFINITION_FORMATION('',$,#231);
#227=PRODUCT_RELATED_PRODUCT_CATEGORY(
'10744_KriTec_Gummipuffer_30x30_M8_Einschraubplatte_beidseitig',
'10744_KriTec_Gummipuffer_30x30_M8_Einschraubplatte_beidseitig',(#231));
#228=APPLICATION_PROTOCOL_DEFINITION('international standard',
'automotive_design',2009,#229);
#229=APPLICATION_CONTEXT(
'Core Data for Automotive Mechanical Design Process');
#230=PRODUCT_CONTEXT('part definition',#229,'mechanical');
#231=PRODUCT(
'10744_KriTec_Gummipuffer_30x30_M8_Einschraubplatte_beidseitig',
'10744_KriTec_Gummipuffer_30x30_M8_Einschraubplatte_beidseitig',$,(#230));
#232=PRESENTATION_STYLE_ASSIGNMENT((#236));
#233=PRESENTATION_STYLE_ASSIGNMENT((#237));
#234=PRESENTATION_STYLE_ASSIGNMENT((#238));
#235=PRESENTATION_STYLE_ASSIGNMENT((#239));
#236=SURFACE_STYLE_USAGE(.BOTH.,#240);
#237=SURFACE_STYLE_USAGE(.BOTH.,#241);
#238=SURFACE_STYLE_USAGE(.BOTH.,#242);
#239=SURFACE_STYLE_USAGE(.BOTH.,#243);
#240=SURFACE_SIDE_STYLE('',(#244));
#241=SURFACE_SIDE_STYLE('',(#245));
#242=SURFACE_SIDE_STYLE('',(#246));
#243=SURFACE_SIDE_STYLE('',(#247));
#244=SURFACE_STYLE_FILL_AREA(#248);
#245=SURFACE_STYLE_FILL_AREA(#249);
#246=SURFACE_STYLE_FILL_AREA(#250);
#247=SURFACE_STYLE_FILL_AREA(#251);
#248=FILL_AREA_STYLE('',(#252));
#249=FILL_AREA_STYLE('',(#253));
#250=FILL_AREA_STYLE('',(#254));
#251=FILL_AREA_STYLE('',(#255));
#252=FILL_AREA_STYLE_COLOUR('',#256);
#253=FILL_AREA_STYLE_COLOUR('',#257);
#254=FILL_AREA_STYLE_COLOUR('',#258);
#255=FILL_AREA_STYLE_COLOUR('',#259);
#256=COLOUR_RGB('',0.705882352941177,0.705882352941177,0.705882352941177);
#257=COLOUR_RGB('',0.956862745098039,0.956862745098039,0.956862745098039);
#258=COLOUR_RGB('',0.745098039215686,0.737254901960784,0.729411764705882);
#259=COLOUR_RGB('',0.250980392156863,0.250980392156863,0.250980392156863);
ENDSEC;
END-ISO-10303-21;
