ISO-10303-21;
HEADER;
/* Generated by software containing ST-Developer
 * from STEP Tools, Inc. (www.steptools.com) 
 */

FILE_DESCRIPTION(
/* description */ (''),
/* implementation_level */ '2;1');

FILE_NAME(
/* name */ 
'S:\\Bilder_neu\\10560_KriTec_Lasche_6_120x60x3_schwarz_mit_Senkungen\\
Inventordateien\\10560_KriTec_Lasche_6_120x60x3_schwarz_mit_Senkungen.
stp',
/* time_stamp */ '2014-06-05T12:17:23+02:00',
/* author */ ('kostic'),
/* organization */ (''),
/* preprocessor_version */ 'ST-DEVELOPER v15.2',
/* originating_system */ 'Autodesk Inventor 2014',
/* authorisation */ '');

FILE_SCHEMA (('AUTOMOTIVE_DESIGN { 1 0 10303 214 3 1 1 }'));
ENDSEC;

DATA;
#10=SHAPE_REPRESENTATION_RELATIONSHIP('SRR','None',#749,#11);
#11=ADVANCED_BREP_SHAPE_REPRESENTATION($,(#430),#740);
#12=STYLED_ITEM($,(#757),#430);
#13=CONICAL_SURFACE($,#455,4.75,45.);
#14=CONICAL_SURFACE($,#459,4.75,45.);
#15=CONICAL_SURFACE($,#463,4.75,45.);
#16=CONICAL_SURFACE($,#467,4.75,45.);
#17=CONICAL_SURFACE($,#471,4.75,45.);
#18=CONICAL_SURFACE($,#475,4.75,45.);
#19=CONICAL_SURFACE($,#479,4.75,45.);
#20=CONICAL_SURFACE($,#483,4.75,45.);
#21=FACE_BOUND($,#87,.T.);
#22=FACE_BOUND($,#88,.T.);
#23=FACE_BOUND($,#89,.T.);
#24=FACE_BOUND($,#90,.T.);
#25=FACE_BOUND($,#91,.T.);
#26=FACE_BOUND($,#92,.T.);
#27=FACE_BOUND($,#93,.T.);
#28=FACE_BOUND($,#94,.T.);
#29=FACE_BOUND($,#95,.T.);
#30=FACE_BOUND($,#101,.T.);
#31=FACE_BOUND($,#103,.T.);
#32=FACE_BOUND($,#105,.T.);
#33=FACE_BOUND($,#107,.T.);
#34=FACE_BOUND($,#109,.T.);
#35=FACE_BOUND($,#111,.T.);
#36=FACE_BOUND($,#113,.T.);
#37=FACE_BOUND($,#115,.T.);
#38=FACE_BOUND($,#117,.T.);
#39=FACE_BOUND($,#119,.T.);
#40=FACE_BOUND($,#121,.T.);
#41=FACE_BOUND($,#123,.T.);
#42=FACE_BOUND($,#125,.T.);
#43=FACE_BOUND($,#127,.T.);
#44=FACE_BOUND($,#129,.T.);
#45=FACE_BOUND($,#131,.T.);
#46=FACE_BOUND($,#135,.T.);
#47=FACE_BOUND($,#136,.T.);
#48=FACE_BOUND($,#137,.T.);
#49=FACE_BOUND($,#138,.T.);
#50=FACE_BOUND($,#139,.T.);
#51=FACE_BOUND($,#140,.T.);
#52=FACE_BOUND($,#141,.T.);
#53=FACE_BOUND($,#142,.T.);
#54=PLANE($,#435);
#55=PLANE($,#436);
#56=PLANE($,#450);
#57=PLANE($,#487);
#58=PLANE($,#488);
#59=PLANE($,#489);
#60=FACE_OUTER_BOUND($,#85,.T.);
#61=FACE_OUTER_BOUND($,#86,.T.);
#62=FACE_OUTER_BOUND($,#96,.T.);
#63=FACE_OUTER_BOUND($,#97,.T.);
#64=FACE_OUTER_BOUND($,#98,.T.);
#65=FACE_OUTER_BOUND($,#99,.T.);
#66=FACE_OUTER_BOUND($,#100,.T.);
#67=FACE_OUTER_BOUND($,#102,.T.);
#68=FACE_OUTER_BOUND($,#104,.T.);
#69=FACE_OUTER_BOUND($,#106,.T.);
#70=FACE_OUTER_BOUND($,#108,.T.);
#71=FACE_OUTER_BOUND($,#110,.T.);
#72=FACE_OUTER_BOUND($,#112,.T.);
#73=FACE_OUTER_BOUND($,#114,.T.);
#74=FACE_OUTER_BOUND($,#116,.T.);
#75=FACE_OUTER_BOUND($,#118,.T.);
#76=FACE_OUTER_BOUND($,#120,.T.);
#77=FACE_OUTER_BOUND($,#122,.T.);
#78=FACE_OUTER_BOUND($,#124,.T.);
#79=FACE_OUTER_BOUND($,#126,.T.);
#80=FACE_OUTER_BOUND($,#128,.T.);
#81=FACE_OUTER_BOUND($,#130,.T.);
#82=FACE_OUTER_BOUND($,#132,.T.);
#83=FACE_OUTER_BOUND($,#133,.T.);
#84=FACE_OUTER_BOUND($,#134,.T.);
#85=EDGE_LOOP($,(#295,#296,#297,#298));
#86=EDGE_LOOP($,(#299,#300,#301,#302));
#87=EDGE_LOOP($,(#303));
#88=EDGE_LOOP($,(#304));
#89=EDGE_LOOP($,(#305));
#90=EDGE_LOOP($,(#306));
#91=EDGE_LOOP($,(#307));
#92=EDGE_LOOP($,(#308));
#93=EDGE_LOOP($,(#309));
#94=EDGE_LOOP($,(#310));
#95=EDGE_LOOP($,(#311,#312,#313,#314,#315,#316,#317,#318));
#96=EDGE_LOOP($,(#319,#320,#321,#322));
#97=EDGE_LOOP($,(#323,#324,#325,#326));
#98=EDGE_LOOP($,(#327,#328,#329,#330));
#99=EDGE_LOOP($,(#331,#332,#333,#334));
#100=EDGE_LOOP($,(#335));
#101=EDGE_LOOP($,(#336));
#102=EDGE_LOOP($,(#337));
#103=EDGE_LOOP($,(#338));
#104=EDGE_LOOP($,(#339));
#105=EDGE_LOOP($,(#340));
#106=EDGE_LOOP($,(#341));
#107=EDGE_LOOP($,(#342));
#108=EDGE_LOOP($,(#343));
#109=EDGE_LOOP($,(#344));
#110=EDGE_LOOP($,(#345));
#111=EDGE_LOOP($,(#346));
#112=EDGE_LOOP($,(#347));
#113=EDGE_LOOP($,(#348));
#114=EDGE_LOOP($,(#349));
#115=EDGE_LOOP($,(#350));
#116=EDGE_LOOP($,(#351));
#117=EDGE_LOOP($,(#352));
#118=EDGE_LOOP($,(#353));
#119=EDGE_LOOP($,(#354));
#120=EDGE_LOOP($,(#355));
#121=EDGE_LOOP($,(#356));
#122=EDGE_LOOP($,(#357));
#123=EDGE_LOOP($,(#358));
#124=EDGE_LOOP($,(#359));
#125=EDGE_LOOP($,(#360));
#126=EDGE_LOOP($,(#361));
#127=EDGE_LOOP($,(#362));
#128=EDGE_LOOP($,(#363));
#129=EDGE_LOOP($,(#364));
#130=EDGE_LOOP($,(#365));
#131=EDGE_LOOP($,(#366));
#132=EDGE_LOOP($,(#367,#368,#369,#370));
#133=EDGE_LOOP($,(#371,#372,#373,#374));
#134=EDGE_LOOP($,(#375,#376,#377,#378,#379,#380,#381,#382));
#135=EDGE_LOOP($,(#383));
#136=EDGE_LOOP($,(#384));
#137=EDGE_LOOP($,(#385));
#138=EDGE_LOOP($,(#386));
#139=EDGE_LOOP($,(#387));
#140=EDGE_LOOP($,(#388));
#141=EDGE_LOOP($,(#389));
#142=EDGE_LOOP($,(#390));
#143=LINE($,#630,#159);
#144=LINE($,#633,#160);
#145=LINE($,#636,#161);
#146=LINE($,#638,#162);
#147=LINE($,#639,#163);
#148=LINE($,#658,#164);
#149=LINE($,#662,#165);
#150=LINE($,#666,#166);
#151=LINE($,#672,#167);
#152=LINE($,#673,#168);
#153=LINE($,#676,#169);
#154=LINE($,#677,#170);
#155=LINE($,#681,#171);
#156=LINE($,#685,#172);
#157=LINE($,#735,#173);
#158=LINE($,#737,#174);
#159=VECTOR($,#496,3.);
#160=VECTOR($,#499,3.);
#161=VECTOR($,#502,112.);
#162=VECTOR($,#503,3.);
#163=VECTOR($,#504,112.);
#164=VECTOR($,#523,52.);
#165=VECTOR($,#526,112.);
#166=VECTOR($,#529,52.);
#167=VECTOR($,#536,3.);
#168=VECTOR($,#537,3.);
#169=VECTOR($,#540,112.);
#170=VECTOR($,#541,3.);
#171=VECTOR($,#546,3.);
#172=VECTOR($,#551,3.);
#173=VECTOR($,#618,52.);
#174=VECTOR($,#621,52.);
#175=CIRCLE($,#433,4.);
#176=CIRCLE($,#434,4.);
#177=CIRCLE($,#437,3.3);
#178=CIRCLE($,#438,3.3);
#179=CIRCLE($,#439,3.3);
#180=CIRCLE($,#440,3.3);
#181=CIRCLE($,#441,3.3);
#182=CIRCLE($,#442,3.3);
#183=CIRCLE($,#443,3.3);
#184=CIRCLE($,#444,3.3);
#185=CIRCLE($,#445,4.);
#186=CIRCLE($,#446,4.);
#187=CIRCLE($,#447,4.);
#188=CIRCLE($,#449,4.);
#189=CIRCLE($,#452,4.);
#190=CIRCLE($,#454,4.);
#191=CIRCLE($,#456,6.2);
#192=CIRCLE($,#457,3.3);
#193=CIRCLE($,#460,6.2);
#194=CIRCLE($,#461,3.3);
#195=CIRCLE($,#464,6.2);
#196=CIRCLE($,#465,3.3);
#197=CIRCLE($,#468,6.2);
#198=CIRCLE($,#469,3.3);
#199=CIRCLE($,#472,6.2);
#200=CIRCLE($,#473,3.3);
#201=CIRCLE($,#476,6.2);
#202=CIRCLE($,#477,3.3);
#203=CIRCLE($,#480,6.2);
#204=CIRCLE($,#481,3.3);
#205=CIRCLE($,#484,6.2);
#206=CIRCLE($,#485,3.3);
#207=VERTEX_POINT($,#626);
#208=VERTEX_POINT($,#627);
#209=VERTEX_POINT($,#629);
#210=VERTEX_POINT($,#631);
#211=VERTEX_POINT($,#635);
#212=VERTEX_POINT($,#637);
#213=VERTEX_POINT($,#641);
#214=VERTEX_POINT($,#643);
#215=VERTEX_POINT($,#645);
#216=VERTEX_POINT($,#647);
#217=VERTEX_POINT($,#649);
#218=VERTEX_POINT($,#651);
#219=VERTEX_POINT($,#653);
#220=VERTEX_POINT($,#655);
#221=VERTEX_POINT($,#657);
#222=VERTEX_POINT($,#659);
#223=VERTEX_POINT($,#661);
#224=VERTEX_POINT($,#663);
#225=VERTEX_POINT($,#665);
#226=VERTEX_POINT($,#669);
#227=VERTEX_POINT($,#670);
#228=VERTEX_POINT($,#675);
#229=VERTEX_POINT($,#679);
#230=VERTEX_POINT($,#683);
#231=VERTEX_POINT($,#687);
#232=VERTEX_POINT($,#689);
#233=VERTEX_POINT($,#693);
#234=VERTEX_POINT($,#695);
#235=VERTEX_POINT($,#699);
#236=VERTEX_POINT($,#701);
#237=VERTEX_POINT($,#705);
#238=VERTEX_POINT($,#707);
#239=VERTEX_POINT($,#711);
#240=VERTEX_POINT($,#713);
#241=VERTEX_POINT($,#717);
#242=VERTEX_POINT($,#719);
#243=VERTEX_POINT($,#723);
#244=VERTEX_POINT($,#725);
#245=VERTEX_POINT($,#729);
#246=VERTEX_POINT($,#731);
#247=EDGE_CURVE($,#207,#208,#175,.T.);
#248=EDGE_CURVE($,#208,#209,#143,.T.);
#249=EDGE_CURVE($,#209,#210,#176,.T.);
#250=EDGE_CURVE($,#210,#207,#144,.T.);
#251=EDGE_CURVE($,#210,#211,#145,.T.);
#252=EDGE_CURVE($,#212,#211,#146,.T.);
#253=EDGE_CURVE($,#207,#212,#147,.T.);
#254=EDGE_CURVE($,#213,#213,#177,.T.);
#255=EDGE_CURVE($,#214,#214,#178,.T.);
#256=EDGE_CURVE($,#215,#215,#179,.T.);
#257=EDGE_CURVE($,#216,#216,#180,.T.);
#258=EDGE_CURVE($,#217,#217,#181,.T.);
#259=EDGE_CURVE($,#218,#218,#182,.T.);
#260=EDGE_CURVE($,#219,#219,#183,.T.);
#261=EDGE_CURVE($,#220,#220,#184,.T.);
#262=EDGE_CURVE($,#221,#209,#148,.T.);
#263=EDGE_CURVE($,#222,#221,#185,.T.);
#264=EDGE_CURVE($,#223,#222,#149,.T.);
#265=EDGE_CURVE($,#224,#223,#186,.T.);
#266=EDGE_CURVE($,#225,#224,#150,.T.);
#267=EDGE_CURVE($,#211,#225,#187,.T.);
#268=EDGE_CURVE($,#226,#227,#188,.T.);
#269=EDGE_CURVE($,#227,#222,#151,.T.);
#270=EDGE_CURVE($,#221,#226,#152,.T.);
#271=EDGE_CURVE($,#228,#227,#153,.T.);
#272=EDGE_CURVE($,#223,#228,#154,.T.);
#273=EDGE_CURVE($,#228,#229,#189,.T.);
#274=EDGE_CURVE($,#229,#224,#155,.T.);
#275=EDGE_CURVE($,#230,#212,#190,.T.);
#276=EDGE_CURVE($,#225,#230,#156,.T.);
#277=EDGE_CURVE($,#231,#231,#191,.T.);
#278=EDGE_CURVE($,#232,#232,#192,.T.);
#279=EDGE_CURVE($,#233,#233,#193,.T.);
#280=EDGE_CURVE($,#234,#234,#194,.T.);
#281=EDGE_CURVE($,#235,#235,#195,.T.);
#282=EDGE_CURVE($,#236,#236,#196,.T.);
#283=EDGE_CURVE($,#237,#237,#197,.T.);
#284=EDGE_CURVE($,#238,#238,#198,.T.);
#285=EDGE_CURVE($,#239,#239,#199,.T.);
#286=EDGE_CURVE($,#240,#240,#200,.T.);
#287=EDGE_CURVE($,#241,#241,#201,.T.);
#288=EDGE_CURVE($,#242,#242,#202,.T.);
#289=EDGE_CURVE($,#243,#243,#203,.T.);
#290=EDGE_CURVE($,#244,#244,#204,.T.);
#291=EDGE_CURVE($,#245,#245,#205,.T.);
#292=EDGE_CURVE($,#246,#246,#206,.T.);
#293=EDGE_CURVE($,#230,#229,#157,.T.);
#294=EDGE_CURVE($,#226,#208,#158,.T.);
#295=ORIENTED_EDGE($,*,*,#247,.T.);
#296=ORIENTED_EDGE($,*,*,#248,.T.);
#297=ORIENTED_EDGE($,*,*,#249,.T.);
#298=ORIENTED_EDGE($,*,*,#250,.T.);
#299=ORIENTED_EDGE($,*,*,#250,.F.);
#300=ORIENTED_EDGE($,*,*,#251,.T.);
#301=ORIENTED_EDGE($,*,*,#252,.F.);
#302=ORIENTED_EDGE($,*,*,#253,.F.);
#303=ORIENTED_EDGE($,*,*,#254,.T.);
#304=ORIENTED_EDGE($,*,*,#255,.T.);
#305=ORIENTED_EDGE($,*,*,#256,.T.);
#306=ORIENTED_EDGE($,*,*,#257,.T.);
#307=ORIENTED_EDGE($,*,*,#258,.T.);
#308=ORIENTED_EDGE($,*,*,#259,.T.);
#309=ORIENTED_EDGE($,*,*,#260,.T.);
#310=ORIENTED_EDGE($,*,*,#261,.T.);
#311=ORIENTED_EDGE($,*,*,#249,.F.);
#312=ORIENTED_EDGE($,*,*,#262,.F.);
#313=ORIENTED_EDGE($,*,*,#263,.F.);
#314=ORIENTED_EDGE($,*,*,#264,.F.);
#315=ORIENTED_EDGE($,*,*,#265,.F.);
#316=ORIENTED_EDGE($,*,*,#266,.F.);
#317=ORIENTED_EDGE($,*,*,#267,.F.);
#318=ORIENTED_EDGE($,*,*,#251,.F.);
#319=ORIENTED_EDGE($,*,*,#268,.T.);
#320=ORIENTED_EDGE($,*,*,#269,.T.);
#321=ORIENTED_EDGE($,*,*,#263,.T.);
#322=ORIENTED_EDGE($,*,*,#270,.T.);
#323=ORIENTED_EDGE($,*,*,#269,.F.);
#324=ORIENTED_EDGE($,*,*,#271,.F.);
#325=ORIENTED_EDGE($,*,*,#272,.F.);
#326=ORIENTED_EDGE($,*,*,#264,.T.);
#327=ORIENTED_EDGE($,*,*,#273,.T.);
#328=ORIENTED_EDGE($,*,*,#274,.T.);
#329=ORIENTED_EDGE($,*,*,#265,.T.);
#330=ORIENTED_EDGE($,*,*,#272,.T.);
#331=ORIENTED_EDGE($,*,*,#275,.T.);
#332=ORIENTED_EDGE($,*,*,#252,.T.);
#333=ORIENTED_EDGE($,*,*,#267,.T.);
#334=ORIENTED_EDGE($,*,*,#276,.T.);
#335=ORIENTED_EDGE($,*,*,#277,.F.);
#336=ORIENTED_EDGE($,*,*,#278,.F.);
#337=ORIENTED_EDGE($,*,*,#254,.F.);
#338=ORIENTED_EDGE($,*,*,#278,.T.);
#339=ORIENTED_EDGE($,*,*,#279,.F.);
#340=ORIENTED_EDGE($,*,*,#280,.F.);
#341=ORIENTED_EDGE($,*,*,#255,.F.);
#342=ORIENTED_EDGE($,*,*,#280,.T.);
#343=ORIENTED_EDGE($,*,*,#281,.F.);
#344=ORIENTED_EDGE($,*,*,#282,.F.);
#345=ORIENTED_EDGE($,*,*,#256,.F.);
#346=ORIENTED_EDGE($,*,*,#282,.T.);
#347=ORIENTED_EDGE($,*,*,#283,.F.);
#348=ORIENTED_EDGE($,*,*,#284,.F.);
#349=ORIENTED_EDGE($,*,*,#257,.F.);
#350=ORIENTED_EDGE($,*,*,#284,.T.);
#351=ORIENTED_EDGE($,*,*,#285,.F.);
#352=ORIENTED_EDGE($,*,*,#286,.F.);
#353=ORIENTED_EDGE($,*,*,#258,.F.);
#354=ORIENTED_EDGE($,*,*,#286,.T.);
#355=ORIENTED_EDGE($,*,*,#287,.F.);
#356=ORIENTED_EDGE($,*,*,#288,.F.);
#357=ORIENTED_EDGE($,*,*,#259,.F.);
#358=ORIENTED_EDGE($,*,*,#288,.T.);
#359=ORIENTED_EDGE($,*,*,#289,.F.);
#360=ORIENTED_EDGE($,*,*,#290,.F.);
#361=ORIENTED_EDGE($,*,*,#260,.F.);
#362=ORIENTED_EDGE($,*,*,#290,.T.);
#363=ORIENTED_EDGE($,*,*,#291,.F.);
#364=ORIENTED_EDGE($,*,*,#292,.F.);
#365=ORIENTED_EDGE($,*,*,#261,.F.);
#366=ORIENTED_EDGE($,*,*,#292,.T.);
#367=ORIENTED_EDGE($,*,*,#274,.F.);
#368=ORIENTED_EDGE($,*,*,#293,.F.);
#369=ORIENTED_EDGE($,*,*,#276,.F.);
#370=ORIENTED_EDGE($,*,*,#266,.T.);
#371=ORIENTED_EDGE($,*,*,#248,.F.);
#372=ORIENTED_EDGE($,*,*,#294,.F.);
#373=ORIENTED_EDGE($,*,*,#270,.F.);
#374=ORIENTED_EDGE($,*,*,#262,.T.);
#375=ORIENTED_EDGE($,*,*,#247,.F.);
#376=ORIENTED_EDGE($,*,*,#253,.T.);
#377=ORIENTED_EDGE($,*,*,#275,.F.);
#378=ORIENTED_EDGE($,*,*,#293,.T.);
#379=ORIENTED_EDGE($,*,*,#273,.F.);
#380=ORIENTED_EDGE($,*,*,#271,.T.);
#381=ORIENTED_EDGE($,*,*,#268,.F.);
#382=ORIENTED_EDGE($,*,*,#294,.T.);
#383=ORIENTED_EDGE($,*,*,#277,.T.);
#384=ORIENTED_EDGE($,*,*,#279,.T.);
#385=ORIENTED_EDGE($,*,*,#281,.T.);
#386=ORIENTED_EDGE($,*,*,#283,.T.);
#387=ORIENTED_EDGE($,*,*,#285,.T.);
#388=ORIENTED_EDGE($,*,*,#287,.T.);
#389=ORIENTED_EDGE($,*,*,#289,.T.);
#390=ORIENTED_EDGE($,*,*,#291,.T.);
#391=CYLINDRICAL_SURFACE($,#432,4.);
#392=CYLINDRICAL_SURFACE($,#448,4.);
#393=CYLINDRICAL_SURFACE($,#451,4.);
#394=CYLINDRICAL_SURFACE($,#453,4.);
#395=CYLINDRICAL_SURFACE($,#458,3.3);
#396=CYLINDRICAL_SURFACE($,#462,3.3);
#397=CYLINDRICAL_SURFACE($,#466,3.3);
#398=CYLINDRICAL_SURFACE($,#470,3.3);
#399=CYLINDRICAL_SURFACE($,#474,3.3);
#400=CYLINDRICAL_SURFACE($,#478,3.3);
#401=CYLINDRICAL_SURFACE($,#482,3.3);
#402=CYLINDRICAL_SURFACE($,#486,3.3);
#403=ADVANCED_FACE($,(#60),#391,.T.);
#404=ADVANCED_FACE($,(#61),#54,.T.);
#405=ADVANCED_FACE($,(#21,#22,#23,#24,#25,#26,#27,#28,#29),#55,.F.);
#406=ADVANCED_FACE($,(#62),#392,.T.);
#407=ADVANCED_FACE($,(#63),#56,.T.);
#408=ADVANCED_FACE($,(#64),#393,.T.);
#409=ADVANCED_FACE($,(#65),#394,.T.);
#410=ADVANCED_FACE($,(#66,#30),#13,.F.);
#411=ADVANCED_FACE($,(#67,#31),#395,.F.);
#412=ADVANCED_FACE($,(#68,#32),#14,.F.);
#413=ADVANCED_FACE($,(#69,#33),#396,.F.);
#414=ADVANCED_FACE($,(#70,#34),#15,.F.);
#415=ADVANCED_FACE($,(#71,#35),#397,.F.);
#416=ADVANCED_FACE($,(#72,#36),#16,.F.);
#417=ADVANCED_FACE($,(#73,#37),#398,.F.);
#418=ADVANCED_FACE($,(#74,#38),#17,.F.);
#419=ADVANCED_FACE($,(#75,#39),#399,.F.);
#420=ADVANCED_FACE($,(#76,#40),#18,.F.);
#421=ADVANCED_FACE($,(#77,#41),#400,.F.);
#422=ADVANCED_FACE($,(#78,#42),#19,.F.);
#423=ADVANCED_FACE($,(#79,#43),#401,.F.);
#424=ADVANCED_FACE($,(#80,#44),#20,.F.);
#425=ADVANCED_FACE($,(#81,#45),#402,.F.);
#426=ADVANCED_FACE($,(#82),#57,.T.);
#427=ADVANCED_FACE($,(#83),#58,.T.);
#428=ADVANCED_FACE($,(#84,#46,#47,#48,#49,#50,#51,#52,#53),#59,.T.);
#429=CLOSED_SHELL($,(#403,#404,#405,#406,#407,#408,#409,#410,#411,#412,
#413,#414,#415,#416,#417,#418,#419,#420,#421,#422,#423,#424,#425,#426,#427,
#428));
#430=MANIFOLD_SOLID_BREP('Volumenk\X\F6rper4',#429);
#431=AXIS2_PLACEMENT_3D('placement',#624,#490,#491);
#432=AXIS2_PLACEMENT_3D($,#625,#492,#493);
#433=AXIS2_PLACEMENT_3D($,#628,#494,#495);
#434=AXIS2_PLACEMENT_3D($,#632,#497,#498);
#435=AXIS2_PLACEMENT_3D($,#634,#500,#501);
#436=AXIS2_PLACEMENT_3D($,#640,#505,#506);
#437=AXIS2_PLACEMENT_3D($,#642,#507,#508);
#438=AXIS2_PLACEMENT_3D($,#644,#509,#510);
#439=AXIS2_PLACEMENT_3D($,#646,#511,#512);
#440=AXIS2_PLACEMENT_3D($,#648,#513,#514);
#441=AXIS2_PLACEMENT_3D($,#650,#515,#516);
#442=AXIS2_PLACEMENT_3D($,#652,#517,#518);
#443=AXIS2_PLACEMENT_3D($,#654,#519,#520);
#444=AXIS2_PLACEMENT_3D($,#656,#521,#522);
#445=AXIS2_PLACEMENT_3D($,#660,#524,#525);
#446=AXIS2_PLACEMENT_3D($,#664,#527,#528);
#447=AXIS2_PLACEMENT_3D($,#667,#530,#531);
#448=AXIS2_PLACEMENT_3D($,#668,#532,#533);
#449=AXIS2_PLACEMENT_3D($,#671,#534,#535);
#450=AXIS2_PLACEMENT_3D($,#674,#538,#539);
#451=AXIS2_PLACEMENT_3D($,#678,#542,#543);
#452=AXIS2_PLACEMENT_3D($,#680,#544,#545);
#453=AXIS2_PLACEMENT_3D($,#682,#547,#548);
#454=AXIS2_PLACEMENT_3D($,#684,#549,#550);
#455=AXIS2_PLACEMENT_3D($,#686,#552,#553);
#456=AXIS2_PLACEMENT_3D($,#688,#554,#555);
#457=AXIS2_PLACEMENT_3D($,#690,#556,#557);
#458=AXIS2_PLACEMENT_3D($,#691,#558,#559);
#459=AXIS2_PLACEMENT_3D($,#692,#560,#561);
#460=AXIS2_PLACEMENT_3D($,#694,#562,#563);
#461=AXIS2_PLACEMENT_3D($,#696,#564,#565);
#462=AXIS2_PLACEMENT_3D($,#697,#566,#567);
#463=AXIS2_PLACEMENT_3D($,#698,#568,#569);
#464=AXIS2_PLACEMENT_3D($,#700,#570,#571);
#465=AXIS2_PLACEMENT_3D($,#702,#572,#573);
#466=AXIS2_PLACEMENT_3D($,#703,#574,#575);
#467=AXIS2_PLACEMENT_3D($,#704,#576,#577);
#468=AXIS2_PLACEMENT_3D($,#706,#578,#579);
#469=AXIS2_PLACEMENT_3D($,#708,#580,#581);
#470=AXIS2_PLACEMENT_3D($,#709,#582,#583);
#471=AXIS2_PLACEMENT_3D($,#710,#584,#585);
#472=AXIS2_PLACEMENT_3D($,#712,#586,#587);
#473=AXIS2_PLACEMENT_3D($,#714,#588,#589);
#474=AXIS2_PLACEMENT_3D($,#715,#590,#591);
#475=AXIS2_PLACEMENT_3D($,#716,#592,#593);
#476=AXIS2_PLACEMENT_3D($,#718,#594,#595);
#477=AXIS2_PLACEMENT_3D($,#720,#596,#597);
#478=AXIS2_PLACEMENT_3D($,#721,#598,#599);
#479=AXIS2_PLACEMENT_3D($,#722,#600,#601);
#480=AXIS2_PLACEMENT_3D($,#724,#602,#603);
#481=AXIS2_PLACEMENT_3D($,#726,#604,#605);
#482=AXIS2_PLACEMENT_3D($,#727,#606,#607);
#483=AXIS2_PLACEMENT_3D($,#728,#608,#609);
#484=AXIS2_PLACEMENT_3D($,#730,#610,#611);
#485=AXIS2_PLACEMENT_3D($,#732,#612,#613);
#486=AXIS2_PLACEMENT_3D($,#733,#614,#615);
#487=AXIS2_PLACEMENT_3D($,#734,#616,#617);
#488=AXIS2_PLACEMENT_3D($,#736,#619,#620);
#489=AXIS2_PLACEMENT_3D($,#738,#622,#623);
#490=DIRECTION('axis',(0.,0.,1.));
#491=DIRECTION('refdir',(1.,0.,0.));
#492=DIRECTION('center_axis',(0.,0.,1.));
#493=DIRECTION('ref_axis',(0.707106781186548,0.707106781186548,0.));
#494=DIRECTION('center_axis',(0.,0.,-1.));
#495=DIRECTION('ref_axis',(0.707106781186548,0.707106781186548,0.));
#496=DIRECTION($,(0.,0.,-1.));
#497=DIRECTION('center_axis',(0.,0.,1.));
#498=DIRECTION('ref_axis',(0.707106781186548,0.707106781186548,0.));
#499=DIRECTION($,(0.,0.,1.));
#500=DIRECTION('center_axis',(0.,1.,0.));
#501=DIRECTION('ref_axis',(-1.,0.,0.));
#502=DIRECTION($,(-1.,0.,0.));
#503=DIRECTION($,(0.,0.,-1.));
#504=DIRECTION($,(-1.,0.,0.));
#505=DIRECTION('center_axis',(0.,0.,1.));
#506=DIRECTION('ref_axis',(1.,0.,0.));
#507=DIRECTION('center_axis',(0.,0.,1.));
#508=DIRECTION('ref_axis',(1.,0.,0.));
#509=DIRECTION('center_axis',(0.,0.,1.));
#510=DIRECTION('ref_axis',(1.,0.,0.));
#511=DIRECTION('center_axis',(0.,0.,1.));
#512=DIRECTION('ref_axis',(1.,0.,0.));
#513=DIRECTION('center_axis',(0.,0.,1.));
#514=DIRECTION('ref_axis',(1.,0.,0.));
#515=DIRECTION('center_axis',(0.,0.,1.));
#516=DIRECTION('ref_axis',(1.,0.,0.));
#517=DIRECTION('center_axis',(0.,0.,1.));
#518=DIRECTION('ref_axis',(1.,0.,0.));
#519=DIRECTION('center_axis',(0.,0.,1.));
#520=DIRECTION('ref_axis',(1.,0.,0.));
#521=DIRECTION('center_axis',(0.,0.,1.));
#522=DIRECTION('ref_axis',(1.,0.,0.));
#523=DIRECTION($,(0.,1.,0.));
#524=DIRECTION('center_axis',(0.,0.,1.));
#525=DIRECTION('ref_axis',(0.707106781186548,-0.707106781186548,0.));
#526=DIRECTION($,(1.,7.40148683083438E-017,0.));
#527=DIRECTION('center_axis',(0.,0.,1.));
#528=DIRECTION('ref_axis',(-0.707106781186548,-0.707106781186548,0.));
#529=DIRECTION($,(0.,-1.,0.));
#530=DIRECTION('center_axis',(0.,0.,1.));
#531=DIRECTION('ref_axis',(-0.707106781186548,0.707106781186548,0.));
#532=DIRECTION('center_axis',(0.,0.,1.));
#533=DIRECTION('ref_axis',(0.707106781186548,-0.707106781186548,0.));
#534=DIRECTION('center_axis',(0.,0.,-1.));
#535=DIRECTION('ref_axis',(0.707106781186548,-0.707106781186548,0.));
#536=DIRECTION($,(0.,0.,-1.));
#537=DIRECTION($,(0.,0.,1.));
#538=DIRECTION('center_axis',(7.40148683083438E-017,-1.,0.));
#539=DIRECTION('ref_axis',(1.,0.,0.));
#540=DIRECTION($,(1.,7.40148683083438E-017,0.));
#541=DIRECTION($,(0.,0.,1.));
#542=DIRECTION('center_axis',(0.,0.,1.));
#543=DIRECTION('ref_axis',(-0.707106781186548,-0.707106781186548,0.));
#544=DIRECTION('center_axis',(0.,0.,-1.));
#545=DIRECTION('ref_axis',(-0.707106781186548,-0.707106781186548,0.));
#546=DIRECTION($,(0.,0.,-1.));
#547=DIRECTION('center_axis',(0.,0.,1.));
#548=DIRECTION('ref_axis',(-0.707106781186548,0.707106781186548,0.));
#549=DIRECTION('center_axis',(0.,0.,-1.));
#550=DIRECTION('ref_axis',(-0.707106781186548,0.707106781186548,0.));
#551=DIRECTION($,(0.,0.,1.));
#552=DIRECTION('center_axis',(0.,0.,1.));
#553=DIRECTION('ref_axis',(1.,0.,0.));
#554=DIRECTION('center_axis',(0.,0.,-1.));
#555=DIRECTION('ref_axis',(1.,0.,0.));
#556=DIRECTION('center_axis',(0.,0.,1.));
#557=DIRECTION('ref_axis',(1.,0.,0.));
#558=DIRECTION('center_axis',(0.,0.,1.));
#559=DIRECTION('ref_axis',(1.,0.,0.));
#560=DIRECTION('center_axis',(0.,0.,1.));
#561=DIRECTION('ref_axis',(1.,0.,0.));
#562=DIRECTION('center_axis',(0.,0.,-1.));
#563=DIRECTION('ref_axis',(1.,0.,0.));
#564=DIRECTION('center_axis',(0.,0.,1.));
#565=DIRECTION('ref_axis',(1.,0.,0.));
#566=DIRECTION('center_axis',(0.,0.,1.));
#567=DIRECTION('ref_axis',(1.,0.,0.));
#568=DIRECTION('center_axis',(0.,0.,1.));
#569=DIRECTION('ref_axis',(1.,0.,0.));
#570=DIRECTION('center_axis',(0.,0.,-1.));
#571=DIRECTION('ref_axis',(1.,0.,0.));
#572=DIRECTION('center_axis',(0.,0.,1.));
#573=DIRECTION('ref_axis',(1.,0.,0.));
#574=DIRECTION('center_axis',(0.,0.,1.));
#575=DIRECTION('ref_axis',(1.,0.,0.));
#576=DIRECTION('center_axis',(0.,0.,1.));
#577=DIRECTION('ref_axis',(1.,0.,0.));
#578=DIRECTION('center_axis',(0.,0.,-1.));
#579=DIRECTION('ref_axis',(1.,0.,0.));
#580=DIRECTION('center_axis',(0.,0.,1.));
#581=DIRECTION('ref_axis',(1.,0.,0.));
#582=DIRECTION('center_axis',(0.,0.,1.));
#583=DIRECTION('ref_axis',(1.,0.,0.));
#584=DIRECTION('center_axis',(0.,0.,1.));
#585=DIRECTION('ref_axis',(1.,0.,0.));
#586=DIRECTION('center_axis',(0.,0.,-1.));
#587=DIRECTION('ref_axis',(1.,0.,0.));
#588=DIRECTION('center_axis',(0.,0.,1.));
#589=DIRECTION('ref_axis',(1.,0.,0.));
#590=DIRECTION('center_axis',(0.,0.,1.));
#591=DIRECTION('ref_axis',(1.,0.,0.));
#592=DIRECTION('center_axis',(0.,0.,1.));
#593=DIRECTION('ref_axis',(1.,0.,0.));
#594=DIRECTION('center_axis',(0.,0.,-1.));
#595=DIRECTION('ref_axis',(1.,0.,0.));
#596=DIRECTION('center_axis',(0.,0.,1.));
#597=DIRECTION('ref_axis',(1.,0.,0.));
#598=DIRECTION('center_axis',(0.,0.,1.));
#599=DIRECTION('ref_axis',(1.,0.,0.));
#600=DIRECTION('center_axis',(0.,0.,1.));
#601=DIRECTION('ref_axis',(1.,0.,0.));
#602=DIRECTION('center_axis',(0.,0.,-1.));
#603=DIRECTION('ref_axis',(1.,0.,0.));
#604=DIRECTION('center_axis',(0.,0.,1.));
#605=DIRECTION('ref_axis',(1.,0.,0.));
#606=DIRECTION('center_axis',(0.,0.,1.));
#607=DIRECTION('ref_axis',(1.,0.,0.));
#608=DIRECTION('center_axis',(0.,0.,1.));
#609=DIRECTION('ref_axis',(1.,0.,0.));
#610=DIRECTION('center_axis',(0.,0.,-1.));
#611=DIRECTION('ref_axis',(1.,0.,0.));
#612=DIRECTION('center_axis',(0.,0.,1.));
#613=DIRECTION('ref_axis',(1.,0.,0.));
#614=DIRECTION('center_axis',(0.,0.,1.));
#615=DIRECTION('ref_axis',(1.,0.,0.));
#616=DIRECTION('center_axis',(-1.,0.,0.));
#617=DIRECTION('ref_axis',(0.,-1.,0.));
#618=DIRECTION($,(0.,-1.,0.));
#619=DIRECTION('center_axis',(1.,0.,0.));
#620=DIRECTION('ref_axis',(0.,1.,0.));
#621=DIRECTION($,(0.,1.,0.));
#622=DIRECTION('center_axis',(0.,0.,1.));
#623=DIRECTION('ref_axis',(1.,0.,0.));
#624=CARTESIAN_POINT('',(0.,0.,0.));
#625=CARTESIAN_POINT('Origin',(56.,26.,0.));
#626=CARTESIAN_POINT('',(56.,30.,3.));
#627=CARTESIAN_POINT('',(60.,26.,3.));
#628=CARTESIAN_POINT('Origin',(56.,26.,3.));
#629=CARTESIAN_POINT('',(60.,26.,0.));
#630=CARTESIAN_POINT($,(60.,26.,0.));
#631=CARTESIAN_POINT('',(56.,30.,0.));
#632=CARTESIAN_POINT('Origin',(56.,26.,0.));
#633=CARTESIAN_POINT($,(56.,30.,0.));
#634=CARTESIAN_POINT('Origin',(60.,30.,0.));
#635=CARTESIAN_POINT('',(-56.,30.,0.));
#636=CARTESIAN_POINT($,(60.,30.,0.));
#637=CARTESIAN_POINT('',(-56.,30.,3.));
#638=CARTESIAN_POINT($,(-56.,30.,0.));
#639=CARTESIAN_POINT($,(60.,30.,3.));
#640=CARTESIAN_POINT('Origin',(-1.48029736616688E-015,1.48029736616688E-015,
0.));
#641=CARTESIAN_POINT('',(-18.3,-15.,0.));
#642=CARTESIAN_POINT('Origin',(-15.,-15.,0.));
#643=CARTESIAN_POINT('',(41.7,-15.,0.));
#644=CARTESIAN_POINT('Origin',(45.,-15.,0.));
#645=CARTESIAN_POINT('',(11.7,15.,0.));
#646=CARTESIAN_POINT('Origin',(15.,15.,0.));
#647=CARTESIAN_POINT('',(-48.3,15.,0.));
#648=CARTESIAN_POINT('Origin',(-45.,15.,0.));
#649=CARTESIAN_POINT('',(-18.3,15.,0.));
#650=CARTESIAN_POINT('Origin',(-15.,15.,0.));
#651=CARTESIAN_POINT('',(41.7,15.,0.));
#652=CARTESIAN_POINT('Origin',(45.,15.,0.));
#653=CARTESIAN_POINT('',(11.7,-15.,0.));
#654=CARTESIAN_POINT('Origin',(15.,-15.,0.));
#655=CARTESIAN_POINT('',(-48.3,-15.,0.));
#656=CARTESIAN_POINT('Origin',(-45.,-15.,0.));
#657=CARTESIAN_POINT('',(60.,-26.,0.));
#658=CARTESIAN_POINT($,(60.,-30.,0.));
#659=CARTESIAN_POINT('',(56.,-30.,0.));
#660=CARTESIAN_POINT('Origin',(56.,-26.,0.));
#661=CARTESIAN_POINT('',(-56.,-30.,0.));
#662=CARTESIAN_POINT($,(-60.,-30.,0.));
#663=CARTESIAN_POINT('',(-60.,-26.,0.));
#664=CARTESIAN_POINT('Origin',(-56.,-26.,0.));
#665=CARTESIAN_POINT('',(-60.,26.,0.));
#666=CARTESIAN_POINT($,(-60.,30.,0.));
#667=CARTESIAN_POINT('Origin',(-56.,26.,0.));
#668=CARTESIAN_POINT('Origin',(56.,-26.,0.));
#669=CARTESIAN_POINT('',(60.,-26.,3.));
#670=CARTESIAN_POINT('',(56.,-30.,3.));
#671=CARTESIAN_POINT('Origin',(56.,-26.,3.));
#672=CARTESIAN_POINT($,(56.,-30.,0.));
#673=CARTESIAN_POINT($,(60.,-26.,0.));
#674=CARTESIAN_POINT('Origin',(-60.,-30.,0.));
#675=CARTESIAN_POINT('',(-56.,-30.,3.));
#676=CARTESIAN_POINT($,(-60.,-30.,3.));
#677=CARTESIAN_POINT($,(-56.,-30.,0.));
#678=CARTESIAN_POINT('Origin',(-56.,-26.,0.));
#679=CARTESIAN_POINT('',(-60.,-26.,3.));
#680=CARTESIAN_POINT('Origin',(-56.,-26.,3.));
#681=CARTESIAN_POINT($,(-60.,-26.,0.));
#682=CARTESIAN_POINT('Origin',(-56.,26.,0.));
#683=CARTESIAN_POINT('',(-60.,26.,3.));
#684=CARTESIAN_POINT('Origin',(-56.,26.,3.));
#685=CARTESIAN_POINT($,(-60.,26.,0.));
#686=CARTESIAN_POINT('Origin',(-15.,-15.,1.55));
#687=CARTESIAN_POINT('',(-8.8,-15.,3.));
#688=CARTESIAN_POINT('Origin',(-15.,-15.,3.));
#689=CARTESIAN_POINT('',(-11.7,-15.,0.099999999999999));
#690=CARTESIAN_POINT('Origin',(-15.,-15.,0.100000000000009));
#691=CARTESIAN_POINT('Origin',(-15.,-15.,-131.19761547807));
#692=CARTESIAN_POINT('Origin',(45.,-15.,1.55));
#693=CARTESIAN_POINT('',(51.2,-15.,3.));
#694=CARTESIAN_POINT('Origin',(45.,-15.,3.));
#695=CARTESIAN_POINT('',(48.3,-15.,0.099999999999999));
#696=CARTESIAN_POINT('Origin',(45.,-15.,0.100000000000009));
#697=CARTESIAN_POINT('Origin',(45.,-15.,-131.19761547807));
#698=CARTESIAN_POINT('Origin',(15.,15.,1.55));
#699=CARTESIAN_POINT('',(21.2,15.,3.));
#700=CARTESIAN_POINT('Origin',(15.,15.,3.));
#701=CARTESIAN_POINT('',(18.3,15.,0.099999999999999));
#702=CARTESIAN_POINT('Origin',(15.,15.,0.100000000000009));
#703=CARTESIAN_POINT('Origin',(15.,15.,-131.19761547807));
#704=CARTESIAN_POINT('Origin',(-45.,15.,1.55));
#705=CARTESIAN_POINT('',(-38.8,15.,3.));
#706=CARTESIAN_POINT('Origin',(-45.,15.,3.));
#707=CARTESIAN_POINT('',(-41.7,15.,0.099999999999999));
#708=CARTESIAN_POINT('Origin',(-45.,15.,0.100000000000009));
#709=CARTESIAN_POINT('Origin',(-45.,15.,-131.19761547807));
#710=CARTESIAN_POINT('Origin',(-15.,15.,1.55));
#711=CARTESIAN_POINT('',(-8.8,15.,3.));
#712=CARTESIAN_POINT('Origin',(-15.,15.,3.));
#713=CARTESIAN_POINT('',(-11.7,15.,0.099999999999999));
#714=CARTESIAN_POINT('Origin',(-15.,15.,0.100000000000009));
#715=CARTESIAN_POINT('Origin',(-15.,15.,-131.19761547807));
#716=CARTESIAN_POINT('Origin',(45.,15.,1.55));
#717=CARTESIAN_POINT('',(51.2,15.,3.));
#718=CARTESIAN_POINT('Origin',(45.,15.,3.));
#719=CARTESIAN_POINT('',(48.3,15.,0.099999999999999));
#720=CARTESIAN_POINT('Origin',(45.,15.,0.100000000000009));
#721=CARTESIAN_POINT('Origin',(45.,15.,-131.19761547807));
#722=CARTESIAN_POINT('Origin',(15.,-15.,1.55));
#723=CARTESIAN_POINT('',(21.2,-15.,3.));
#724=CARTESIAN_POINT('Origin',(15.,-15.,3.));
#725=CARTESIAN_POINT('',(18.3,-15.,0.099999999999999));
#726=CARTESIAN_POINT('Origin',(15.,-15.,0.100000000000009));
#727=CARTESIAN_POINT('Origin',(15.,-15.,-131.19761547807));
#728=CARTESIAN_POINT('Origin',(-45.,-15.,1.55));
#729=CARTESIAN_POINT('',(-38.8,-15.,3.));
#730=CARTESIAN_POINT('Origin',(-45.,-15.,3.));
#731=CARTESIAN_POINT('',(-41.7,-15.,0.099999999999999));
#732=CARTESIAN_POINT('Origin',(-45.,-15.,0.100000000000009));
#733=CARTESIAN_POINT('Origin',(-45.,-15.,-131.19761547807));
#734=CARTESIAN_POINT('Origin',(-60.,30.,0.));
#735=CARTESIAN_POINT($,(-60.,30.,3.));
#736=CARTESIAN_POINT('Origin',(60.,-30.,0.));
#737=CARTESIAN_POINT($,(60.,-30.,3.));
#738=CARTESIAN_POINT('Origin',(0.,0.,3.));
#739=UNCERTAINTY_MEASURE_WITH_UNIT(LENGTH_MEASURE(0.01),#741,
'DISTANCE_ACCURACY_VALUE',
'Maximum model space distance between geometric entities at asserted c
onnectivities');
#740=(
GEOMETRIC_REPRESENTATION_CONTEXT(3)
GLOBAL_UNCERTAINTY_ASSIGNED_CONTEXT((#739))
GLOBAL_UNIT_ASSIGNED_CONTEXT((#741,#744,#742))
REPRESENTATION_CONTEXT('','3D')
);
#741=(
LENGTH_UNIT()
NAMED_UNIT(*)
SI_UNIT(.MILLI.,.METRE.)
);
#742=(
NAMED_UNIT(*)
SI_UNIT($,.STERADIAN.)
SOLID_ANGLE_UNIT()
);
#743=DIMENSIONAL_EXPONENTS(0.,0.,0.,0.,0.,0.,0.);
#744=(
CONVERSION_BASED_UNIT('degree',#746)
NAMED_UNIT(#743)
PLANE_ANGLE_UNIT()
);
#745=(
NAMED_UNIT(*)
PLANE_ANGLE_UNIT()
SI_UNIT($,.RADIAN.)
);
#746=PLANE_ANGLE_MEASURE_WITH_UNIT(PLANE_ANGLE_MEASURE(0.01745329252),#745);
#747=SHAPE_DEFINITION_REPRESENTATION(#748,#749);
#748=PRODUCT_DEFINITION_SHAPE('',$,#751);
#749=SHAPE_REPRESENTATION('',(#431),#740);
#750=PRODUCT_DEFINITION_CONTEXT('3D Mechanical Parts',#754,'design');
#751=PRODUCT_DEFINITION(
'10560_KriTec_Lasche_6_120x60x3_schwarz_mit_Senkungen',
'10560_KriTec_Lasche_6_120x60x3_schwarz_mit_Senkungen',#752,#750);
#752=PRODUCT_DEFINITION_FORMATION('',$,#756);
#753=APPLICATION_PROTOCOL_DEFINITION('international standard',
'automotive_design',2009,#754);
#754=APPLICATION_CONTEXT(
'Core Data for Automotive Mechanical Design Process');
#755=PRODUCT_CONTEXT('3D Mechanical Parts',#754,'mechanical');
#756=PRODUCT('10560_KriTec_Lasche_6_120x60x3_schwarz_mit_Senkungen',
'10560_KriTec_Lasche_6_120x60x3_schwarz_mit_Senkungen',$,(#755));
#757=PRESENTATION_STYLE_ASSIGNMENT((#758));
#758=SURFACE_STYLE_USAGE(.BOTH.,#759);
#759=SURFACE_SIDE_STYLE($,(#760));
#760=SURFACE_STYLE_FILL_AREA(#761);
#761=FILL_AREA_STYLE($,(#762));
#762=FILL_AREA_STYLE_COLOUR($,#763);
#763=COLOUR_RGB('',0.0196078431372549,0.0196078431372549,0.0196078431372549);
ENDSEC;
END-ISO-10303-21;
