ISO-10303-21;
HEADER;
/* Generated by software containing ST-Developer
 * from STEP Tools, Inc. (www.steptools.com) 
 */

FILE_DESCRIPTION(
/* description */ (''),
/* implementation_level */ '2;1');

FILE_NAME(
/* name */ 
'S:\\Bilder_neu\\10533_KriTec_Lasche_8_120x40x5_schwarz\\Inventordatei
en\\10533_KriTec_Lasche_8_120x40x5_schwarz.stp',
/* time_stamp */ '2014-06-04T16:58:12+02:00',
/* author */ ('kostic'),
/* organization */ (''),
/* preprocessor_version */ 'ST-DEVELOPER v15.2',
/* originating_system */ 'Autodesk Inventor 2014',
/* authorisation */ '');

FILE_SCHEMA (('AUTOMOTIVE_DESIGN { 1 0 10303 214 3 1 1 }'));
ENDSEC;

DATA;
#10=SHAPE_REPRESENTATION_RELATIONSHIP('SRR','None',#471,#11);
#11=ADVANCED_BREP_SHAPE_REPRESENTATION($,(#283),#462);
#12=STYLED_ITEM($,(#479),#283);
#13=LINE($,#414,#37);
#14=LINE($,#416,#38);
#15=LINE($,#418,#39);
#16=LINE($,#419,#40);
#17=LINE($,#422,#41);
#18=LINE($,#424,#42);
#19=LINE($,#425,#43);
#20=LINE($,#428,#44);
#21=LINE($,#430,#45);
#22=LINE($,#432,#46);
#23=LINE($,#434,#47);
#24=LINE($,#436,#48);
#25=LINE($,#437,#49);
#26=LINE($,#440,#50);
#27=LINE($,#442,#51);
#28=LINE($,#443,#52);
#29=LINE($,#446,#53);
#30=LINE($,#447,#54);
#31=LINE($,#450,#55);
#32=LINE($,#451,#56);
#33=LINE($,#454,#57);
#34=LINE($,#455,#58);
#35=LINE($,#457,#59);
#36=LINE($,#459,#60);
#37=VECTOR($,#344,2.82842712474618);
#38=VECTOR($,#345,5.);
#39=VECTOR($,#346,2.82842712474618);
#40=VECTOR($,#347,5.);
#41=VECTOR($,#350,116.);
#42=VECTOR($,#351,5.);
#43=VECTOR($,#352,116.);
#44=VECTOR($,#355,36.);
#45=VECTOR($,#356,2.82842712474619);
#46=VECTOR($,#357,116.);
#47=VECTOR($,#358,2.82842712474619);
#48=VECTOR($,#359,36.);
#49=VECTOR($,#360,2.82842712474619);
#50=VECTOR($,#363,5.);
#51=VECTOR($,#364,2.82842712474619);
#52=VECTOR($,#365,5.);
#53=VECTOR($,#368,116.);
#54=VECTOR($,#369,5.);
#55=VECTOR($,#372,2.82842712474619);
#56=VECTOR($,#373,5.);
#57=VECTOR($,#376,5.);
#58=VECTOR($,#377,2.82842712474619);
#59=VECTOR($,#380,36.);
#60=VECTOR($,#383,36.);
#61=PLANE($,#300);
#62=PLANE($,#301);
#63=PLANE($,#302);
#64=PLANE($,#303);
#65=PLANE($,#304);
#66=PLANE($,#305);
#67=PLANE($,#306);
#68=PLANE($,#307);
#69=PLANE($,#308);
#70=PLANE($,#309);
#71=CYLINDRICAL_SURFACE($,#288,4.25);
#72=CYLINDRICAL_SURFACE($,#293,4.25);
#73=CYLINDRICAL_SURFACE($,#298,4.25);
#74=FACE_BOUND($,#103,.T.);
#75=FACE_BOUND($,#105,.T.);
#76=FACE_BOUND($,#107,.T.);
#77=FACE_BOUND($,#109,.T.);
#78=FACE_BOUND($,#111,.T.);
#79=FACE_BOUND($,#113,.T.);
#80=FACE_BOUND($,#116,.T.);
#81=FACE_BOUND($,#117,.T.);
#82=FACE_BOUND($,#118,.T.);
#83=FACE_BOUND($,#119,.T.);
#84=FACE_BOUND($,#126,.T.);
#85=FACE_BOUND($,#127,.T.);
#86=FACE_BOUND($,#128,.T.);
#87=FACE_BOUND($,#129,.T.);
#88=FACE_OUTER_BOUND($,#102,.T.);
#89=FACE_OUTER_BOUND($,#104,.T.);
#90=FACE_OUTER_BOUND($,#106,.T.);
#91=FACE_OUTER_BOUND($,#108,.T.);
#92=FACE_OUTER_BOUND($,#110,.T.);
#93=FACE_OUTER_BOUND($,#112,.T.);
#94=FACE_OUTER_BOUND($,#114,.T.);
#95=FACE_OUTER_BOUND($,#115,.T.);
#96=FACE_OUTER_BOUND($,#120,.T.);
#97=FACE_OUTER_BOUND($,#121,.T.);
#98=FACE_OUTER_BOUND($,#122,.T.);
#99=FACE_OUTER_BOUND($,#123,.T.);
#100=FACE_OUTER_BOUND($,#124,.T.);
#101=FACE_OUTER_BOUND($,#125,.T.);
#102=EDGE_LOOP($,(#197));
#103=EDGE_LOOP($,(#198));
#104=EDGE_LOOP($,(#199));
#105=EDGE_LOOP($,(#200));
#106=EDGE_LOOP($,(#201));
#107=EDGE_LOOP($,(#202));
#108=EDGE_LOOP($,(#203));
#109=EDGE_LOOP($,(#204));
#110=EDGE_LOOP($,(#205));
#111=EDGE_LOOP($,(#206));
#112=EDGE_LOOP($,(#207));
#113=EDGE_LOOP($,(#208));
#114=EDGE_LOOP($,(#209,#210,#211,#212));
#115=EDGE_LOOP($,(#213,#214,#215,#216));
#116=EDGE_LOOP($,(#217));
#117=EDGE_LOOP($,(#218));
#118=EDGE_LOOP($,(#219));
#119=EDGE_LOOP($,(#220,#221,#222,#223,#224,#225,#226,#227));
#120=EDGE_LOOP($,(#228,#229,#230,#231));
#121=EDGE_LOOP($,(#232,#233,#234,#235));
#122=EDGE_LOOP($,(#236,#237,#238,#239));
#123=EDGE_LOOP($,(#240,#241,#242,#243));
#124=EDGE_LOOP($,(#244,#245,#246,#247));
#125=EDGE_LOOP($,(#248,#249,#250,#251));
#126=EDGE_LOOP($,(#252));
#127=EDGE_LOOP($,(#253));
#128=EDGE_LOOP($,(#254));
#129=EDGE_LOOP($,(#255,#256,#257,#258,#259,#260,#261,#262));
#130=CIRCLE($,#286,9.15);
#131=CIRCLE($,#287,4.25);
#132=CIRCLE($,#289,4.25);
#133=CIRCLE($,#291,9.15);
#134=CIRCLE($,#292,4.25);
#135=CIRCLE($,#294,4.25);
#136=CIRCLE($,#296,9.15);
#137=CIRCLE($,#297,4.25);
#138=CIRCLE($,#299,4.25);
#139=VERTEX_POINT($,#388);
#140=VERTEX_POINT($,#390);
#141=VERTEX_POINT($,#393);
#142=VERTEX_POINT($,#396);
#143=VERTEX_POINT($,#398);
#144=VERTEX_POINT($,#401);
#145=VERTEX_POINT($,#404);
#146=VERTEX_POINT($,#406);
#147=VERTEX_POINT($,#409);
#148=VERTEX_POINT($,#412);
#149=VERTEX_POINT($,#413);
#150=VERTEX_POINT($,#415);
#151=VERTEX_POINT($,#417);
#152=VERTEX_POINT($,#421);
#153=VERTEX_POINT($,#423);
#154=VERTEX_POINT($,#427);
#155=VERTEX_POINT($,#429);
#156=VERTEX_POINT($,#431);
#157=VERTEX_POINT($,#433);
#158=VERTEX_POINT($,#435);
#159=VERTEX_POINT($,#439);
#160=VERTEX_POINT($,#441);
#161=VERTEX_POINT($,#445);
#162=VERTEX_POINT($,#449);
#163=VERTEX_POINT($,#453);
#164=EDGE_CURVE($,#139,#139,#130,.T.);
#165=EDGE_CURVE($,#140,#140,#131,.T.);
#166=EDGE_CURVE($,#141,#141,#132,.T.);
#167=EDGE_CURVE($,#142,#142,#133,.T.);
#168=EDGE_CURVE($,#143,#143,#134,.T.);
#169=EDGE_CURVE($,#144,#144,#135,.T.);
#170=EDGE_CURVE($,#145,#145,#136,.T.);
#171=EDGE_CURVE($,#146,#146,#137,.T.);
#172=EDGE_CURVE($,#147,#147,#138,.T.);
#173=EDGE_CURVE($,#148,#149,#13,.T.);
#174=EDGE_CURVE($,#149,#150,#14,.T.);
#175=EDGE_CURVE($,#150,#151,#15,.T.);
#176=EDGE_CURVE($,#151,#148,#16,.T.);
#177=EDGE_CURVE($,#152,#149,#17,.T.);
#178=EDGE_CURVE($,#153,#152,#18,.T.);
#179=EDGE_CURVE($,#153,#150,#19,.T.);
#180=EDGE_CURVE($,#148,#154,#20,.T.);
#181=EDGE_CURVE($,#155,#154,#21,.T.);
#182=EDGE_CURVE($,#155,#156,#22,.T.);
#183=EDGE_CURVE($,#157,#156,#23,.T.);
#184=EDGE_CURVE($,#157,#158,#24,.T.);
#185=EDGE_CURVE($,#152,#158,#25,.T.);
#186=EDGE_CURVE($,#154,#159,#26,.T.);
#187=EDGE_CURVE($,#159,#160,#27,.T.);
#188=EDGE_CURVE($,#160,#155,#28,.T.);
#189=EDGE_CURVE($,#160,#161,#29,.T.);
#190=EDGE_CURVE($,#156,#161,#30,.T.);
#191=EDGE_CURVE($,#161,#162,#31,.T.);
#192=EDGE_CURVE($,#162,#157,#32,.T.);
#193=EDGE_CURVE($,#158,#163,#33,.T.);
#194=EDGE_CURVE($,#163,#153,#34,.T.);
#195=EDGE_CURVE($,#162,#163,#35,.T.);
#196=EDGE_CURVE($,#151,#159,#36,.T.);
#197=ORIENTED_EDGE($,*,*,#164,.F.);
#198=ORIENTED_EDGE($,*,*,#165,.F.);
#199=ORIENTED_EDGE($,*,*,#166,.F.);
#200=ORIENTED_EDGE($,*,*,#165,.T.);
#201=ORIENTED_EDGE($,*,*,#167,.F.);
#202=ORIENTED_EDGE($,*,*,#168,.F.);
#203=ORIENTED_EDGE($,*,*,#169,.F.);
#204=ORIENTED_EDGE($,*,*,#168,.T.);
#205=ORIENTED_EDGE($,*,*,#170,.F.);
#206=ORIENTED_EDGE($,*,*,#171,.F.);
#207=ORIENTED_EDGE($,*,*,#172,.F.);
#208=ORIENTED_EDGE($,*,*,#171,.T.);
#209=ORIENTED_EDGE($,*,*,#173,.T.);
#210=ORIENTED_EDGE($,*,*,#174,.T.);
#211=ORIENTED_EDGE($,*,*,#175,.T.);
#212=ORIENTED_EDGE($,*,*,#176,.T.);
#213=ORIENTED_EDGE($,*,*,#174,.F.);
#214=ORIENTED_EDGE($,*,*,#177,.F.);
#215=ORIENTED_EDGE($,*,*,#178,.F.);
#216=ORIENTED_EDGE($,*,*,#179,.T.);
#217=ORIENTED_EDGE($,*,*,#164,.T.);
#218=ORIENTED_EDGE($,*,*,#167,.T.);
#219=ORIENTED_EDGE($,*,*,#170,.T.);
#220=ORIENTED_EDGE($,*,*,#173,.F.);
#221=ORIENTED_EDGE($,*,*,#180,.T.);
#222=ORIENTED_EDGE($,*,*,#181,.F.);
#223=ORIENTED_EDGE($,*,*,#182,.T.);
#224=ORIENTED_EDGE($,*,*,#183,.F.);
#225=ORIENTED_EDGE($,*,*,#184,.T.);
#226=ORIENTED_EDGE($,*,*,#185,.F.);
#227=ORIENTED_EDGE($,*,*,#177,.T.);
#228=ORIENTED_EDGE($,*,*,#181,.T.);
#229=ORIENTED_EDGE($,*,*,#186,.T.);
#230=ORIENTED_EDGE($,*,*,#187,.T.);
#231=ORIENTED_EDGE($,*,*,#188,.T.);
#232=ORIENTED_EDGE($,*,*,#188,.F.);
#233=ORIENTED_EDGE($,*,*,#189,.T.);
#234=ORIENTED_EDGE($,*,*,#190,.F.);
#235=ORIENTED_EDGE($,*,*,#182,.F.);
#236=ORIENTED_EDGE($,*,*,#183,.T.);
#237=ORIENTED_EDGE($,*,*,#190,.T.);
#238=ORIENTED_EDGE($,*,*,#191,.T.);
#239=ORIENTED_EDGE($,*,*,#192,.T.);
#240=ORIENTED_EDGE($,*,*,#185,.T.);
#241=ORIENTED_EDGE($,*,*,#193,.T.);
#242=ORIENTED_EDGE($,*,*,#194,.T.);
#243=ORIENTED_EDGE($,*,*,#178,.T.);
#244=ORIENTED_EDGE($,*,*,#192,.F.);
#245=ORIENTED_EDGE($,*,*,#195,.T.);
#246=ORIENTED_EDGE($,*,*,#193,.F.);
#247=ORIENTED_EDGE($,*,*,#184,.F.);
#248=ORIENTED_EDGE($,*,*,#176,.F.);
#249=ORIENTED_EDGE($,*,*,#196,.T.);
#250=ORIENTED_EDGE($,*,*,#186,.F.);
#251=ORIENTED_EDGE($,*,*,#180,.F.);
#252=ORIENTED_EDGE($,*,*,#166,.T.);
#253=ORIENTED_EDGE($,*,*,#169,.T.);
#254=ORIENTED_EDGE($,*,*,#172,.T.);
#255=ORIENTED_EDGE($,*,*,#175,.F.);
#256=ORIENTED_EDGE($,*,*,#179,.F.);
#257=ORIENTED_EDGE($,*,*,#194,.F.);
#258=ORIENTED_EDGE($,*,*,#195,.F.);
#259=ORIENTED_EDGE($,*,*,#191,.F.);
#260=ORIENTED_EDGE($,*,*,#189,.F.);
#261=ORIENTED_EDGE($,*,*,#187,.F.);
#262=ORIENTED_EDGE($,*,*,#196,.F.);
#263=CONICAL_SURFACE($,#285,6.7,45.);
#264=CONICAL_SURFACE($,#290,6.7,45.);
#265=CONICAL_SURFACE($,#295,6.7,45.);
#266=ADVANCED_FACE($,(#88,#74),#263,.F.);
#267=ADVANCED_FACE($,(#89,#75),#71,.F.);
#268=ADVANCED_FACE($,(#90,#76),#264,.F.);
#269=ADVANCED_FACE($,(#91,#77),#72,.F.);
#270=ADVANCED_FACE($,(#92,#78),#265,.F.);
#271=ADVANCED_FACE($,(#93,#79),#73,.F.);
#272=ADVANCED_FACE($,(#94),#61,.T.);
#273=ADVANCED_FACE($,(#95),#62,.T.);
#274=ADVANCED_FACE($,(#80,#81,#82,#83),#63,.T.);
#275=ADVANCED_FACE($,(#96),#64,.T.);
#276=ADVANCED_FACE($,(#97),#65,.T.);
#277=ADVANCED_FACE($,(#98),#66,.T.);
#278=ADVANCED_FACE($,(#99),#67,.T.);
#279=ADVANCED_FACE($,(#100),#68,.T.);
#280=ADVANCED_FACE($,(#101),#69,.T.);
#281=ADVANCED_FACE($,(#84,#85,#86,#87),#70,.F.);
#282=CLOSED_SHELL($,(#266,#267,#268,#269,#270,#271,#272,#273,#274,#275,
#276,#277,#278,#279,#280,#281));
#283=MANIFOLD_SOLID_BREP('Volumenk\X\F6rper4',#282);
#284=AXIS2_PLACEMENT_3D('placement',#386,#310,#311);
#285=AXIS2_PLACEMENT_3D($,#387,#312,#313);
#286=AXIS2_PLACEMENT_3D($,#389,#314,#315);
#287=AXIS2_PLACEMENT_3D($,#391,#316,#317);
#288=AXIS2_PLACEMENT_3D($,#392,#318,#319);
#289=AXIS2_PLACEMENT_3D($,#394,#320,#321);
#290=AXIS2_PLACEMENT_3D($,#395,#322,#323);
#291=AXIS2_PLACEMENT_3D($,#397,#324,#325);
#292=AXIS2_PLACEMENT_3D($,#399,#326,#327);
#293=AXIS2_PLACEMENT_3D($,#400,#328,#329);
#294=AXIS2_PLACEMENT_3D($,#402,#330,#331);
#295=AXIS2_PLACEMENT_3D($,#403,#332,#333);
#296=AXIS2_PLACEMENT_3D($,#405,#334,#335);
#297=AXIS2_PLACEMENT_3D($,#407,#336,#337);
#298=AXIS2_PLACEMENT_3D($,#408,#338,#339);
#299=AXIS2_PLACEMENT_3D($,#410,#340,#341);
#300=AXIS2_PLACEMENT_3D($,#411,#342,#343);
#301=AXIS2_PLACEMENT_3D($,#420,#348,#349);
#302=AXIS2_PLACEMENT_3D($,#426,#353,#354);
#303=AXIS2_PLACEMENT_3D($,#438,#361,#362);
#304=AXIS2_PLACEMENT_3D($,#444,#366,#367);
#305=AXIS2_PLACEMENT_3D($,#448,#370,#371);
#306=AXIS2_PLACEMENT_3D($,#452,#374,#375);
#307=AXIS2_PLACEMENT_3D($,#456,#378,#379);
#308=AXIS2_PLACEMENT_3D($,#458,#381,#382);
#309=AXIS2_PLACEMENT_3D($,#460,#384,#385);
#310=DIRECTION('axis',(0.,0.,1.));
#311=DIRECTION('refdir',(1.,0.,0.));
#312=DIRECTION('center_axis',(0.,0.,1.));
#313=DIRECTION('ref_axis',(1.,0.,0.));
#314=DIRECTION('center_axis',(0.,0.,-1.));
#315=DIRECTION('ref_axis',(1.,0.,0.));
#316=DIRECTION('center_axis',(0.,0.,1.));
#317=DIRECTION('ref_axis',(1.,0.,0.));
#318=DIRECTION('center_axis',(0.,0.,1.));
#319=DIRECTION('ref_axis',(1.,0.,0.));
#320=DIRECTION('center_axis',(0.,0.,1.));
#321=DIRECTION('ref_axis',(1.,0.,0.));
#322=DIRECTION('center_axis',(0.,0.,1.));
#323=DIRECTION('ref_axis',(1.,0.,0.));
#324=DIRECTION('center_axis',(0.,0.,-1.));
#325=DIRECTION('ref_axis',(1.,0.,0.));
#326=DIRECTION('center_axis',(0.,0.,1.));
#327=DIRECTION('ref_axis',(1.,0.,0.));
#328=DIRECTION('center_axis',(0.,0.,1.));
#329=DIRECTION('ref_axis',(1.,0.,0.));
#330=DIRECTION('center_axis',(0.,0.,1.));
#331=DIRECTION('ref_axis',(1.,0.,0.));
#332=DIRECTION('center_axis',(0.,0.,1.));
#333=DIRECTION('ref_axis',(1.,0.,0.));
#334=DIRECTION('center_axis',(0.,0.,-1.));
#335=DIRECTION('ref_axis',(1.,0.,0.));
#336=DIRECTION('center_axis',(0.,0.,1.));
#337=DIRECTION('ref_axis',(1.,0.,0.));
#338=DIRECTION('center_axis',(0.,0.,1.));
#339=DIRECTION('ref_axis',(1.,0.,0.));
#340=DIRECTION('center_axis',(0.,0.,1.));
#341=DIRECTION('ref_axis',(1.,0.,0.));
#342=DIRECTION('center_axis',(0.707106781186547,-0.707106781186548,0.));
#343=DIRECTION('ref_axis',(0.,0.,-1.));
#344=DIRECTION($,(-0.707106781186548,-0.707106781186547,0.));
#345=DIRECTION($,(0.,0.,-1.));
#346=DIRECTION($,(0.707106781186548,0.707106781186547,0.));
#347=DIRECTION($,(0.,0.,1.));
#348=DIRECTION('center_axis',(9.25185853854297E-017,-1.,0.));
#349=DIRECTION('ref_axis',(1.,0.,0.));
#350=DIRECTION($,(1.,9.25185853854297E-017,0.));
#351=DIRECTION($,(0.,0.,1.));
#352=DIRECTION($,(1.,9.25185853854297E-017,0.));
#353=DIRECTION('center_axis',(0.,0.,1.));
#354=DIRECTION('ref_axis',(1.,0.,0.));
#355=DIRECTION($,(0.,1.,0.));
#356=DIRECTION($,(0.707106781186546,-0.707106781186549,0.));
#357=DIRECTION($,(-1.,0.,0.));
#358=DIRECTION($,(0.707106781186546,0.707106781186549,0.));
#359=DIRECTION($,(0.,-1.,0.));
#360=DIRECTION($,(-0.707106781186546,0.707106781186549,0.));
#361=DIRECTION('center_axis',(0.707106781186549,0.707106781186546,0.));
#362=DIRECTION('ref_axis',(0.,0.,-1.));
#363=DIRECTION($,(0.,0.,-1.));
#364=DIRECTION($,(-0.707106781186546,0.707106781186549,0.));
#365=DIRECTION($,(0.,0.,1.));
#366=DIRECTION('center_axis',(0.,1.,0.));
#367=DIRECTION('ref_axis',(-1.,0.,0.));
#368=DIRECTION($,(-1.,0.,0.));
#369=DIRECTION($,(0.,0.,-1.));
#370=DIRECTION('center_axis',(-0.707106781186549,0.707106781186546,0.));
#371=DIRECTION('ref_axis',(0.,0.,1.));
#372=DIRECTION($,(-0.707106781186546,-0.707106781186549,0.));
#373=DIRECTION($,(0.,0.,1.));
#374=DIRECTION('center_axis',(-0.707106781186549,-0.707106781186546,0.));
#375=DIRECTION('ref_axis',(0.,0.,1.));
#376=DIRECTION($,(0.,0.,-1.));
#377=DIRECTION($,(0.707106781186546,-0.707106781186549,0.));
#378=DIRECTION('center_axis',(-1.,0.,0.));
#379=DIRECTION('ref_axis',(0.,-1.,0.));
#380=DIRECTION($,(0.,-1.,0.));
#381=DIRECTION('center_axis',(1.,0.,0.));
#382=DIRECTION('ref_axis',(0.,1.,0.));
#383=DIRECTION($,(0.,1.,0.));
#384=DIRECTION('center_axis',(0.,0.,1.));
#385=DIRECTION('ref_axis',(1.,0.,0.));
#386=CARTESIAN_POINT('',(0.,0.,0.));
#387=CARTESIAN_POINT('Origin',(40.,0.,2.55));
#388=CARTESIAN_POINT('',(49.15,0.,5.));
#389=CARTESIAN_POINT('Origin',(40.,0.,5.));
#390=CARTESIAN_POINT('',(44.25,0.,0.0999999999999995));
#391=CARTESIAN_POINT('Origin',(40.,0.,0.0999999999999979));
#392=CARTESIAN_POINT('Origin',(40.,0.,-121.589889011722));
#393=CARTESIAN_POINT('',(35.75,-5.20474889637625E-016,0.));
#394=CARTESIAN_POINT('Origin',(40.,0.,0.));
#395=CARTESIAN_POINT('Origin',(0.,0.,2.55));
#396=CARTESIAN_POINT('',(9.15,0.,5.));
#397=CARTESIAN_POINT('Origin',(0.,0.,5.));
#398=CARTESIAN_POINT('',(4.25,0.,0.0999999999999995));
#399=CARTESIAN_POINT('Origin',(0.,0.,0.0999999999999979));
#400=CARTESIAN_POINT('Origin',(0.,0.,-121.589889011722));
#401=CARTESIAN_POINT('',(-4.25,-5.20474889637625E-016,0.));
#402=CARTESIAN_POINT('Origin',(0.,0.,0.));
#403=CARTESIAN_POINT('Origin',(-40.,0.,2.55));
#404=CARTESIAN_POINT('',(-30.85,0.,5.));
#405=CARTESIAN_POINT('Origin',(-40.,0.,5.));
#406=CARTESIAN_POINT('',(-35.75,0.,0.0999999999999995));
#407=CARTESIAN_POINT('Origin',(-40.,0.,0.0999999999999979));
#408=CARTESIAN_POINT('Origin',(-40.,0.,-121.589889011722));
#409=CARTESIAN_POINT('',(-44.25,-5.20474889637625E-016,0.));
#410=CARTESIAN_POINT('Origin',(-40.,0.,0.));
#411=CARTESIAN_POINT('Origin',(59.,-19.,0.));
#412=CARTESIAN_POINT('',(60.,-18.,5.));
#413=CARTESIAN_POINT('',(58.,-20.,5.));
#414=CARTESIAN_POINT($,(49.,-29.,5.));
#415=CARTESIAN_POINT('',(58.,-20.,0.));
#416=CARTESIAN_POINT($,(58.,-20.,0.));
#417=CARTESIAN_POINT('',(60.,-18.,0.));
#418=CARTESIAN_POINT($,(49.,-29.,0.));
#419=CARTESIAN_POINT($,(60.,-18.,0.));
#420=CARTESIAN_POINT('Origin',(-60.,-20.,0.));
#421=CARTESIAN_POINT('',(-58.,-20.,5.));
#422=CARTESIAN_POINT($,(-60.,-20.,5.));
#423=CARTESIAN_POINT('',(-58.,-20.,0.));
#424=CARTESIAN_POINT($,(-58.,-20.,0.));
#425=CARTESIAN_POINT($,(-60.,-20.,0.));
#426=CARTESIAN_POINT('Origin',(0.,4.44089209850063E-015,5.));
#427=CARTESIAN_POINT('',(60.,18.,5.));
#428=CARTESIAN_POINT($,(60.,-20.,5.));
#429=CARTESIAN_POINT('',(58.,20.,5.));
#430=CARTESIAN_POINT($,(49.0000000000001,29.,5.));
#431=CARTESIAN_POINT('',(-58.,20.,5.));
#432=CARTESIAN_POINT($,(60.,20.,5.));
#433=CARTESIAN_POINT('',(-60.,18.,5.));
#434=CARTESIAN_POINT($,(-49.0000000000001,29.,5.));
#435=CARTESIAN_POINT('',(-60.,-18.,5.));
#436=CARTESIAN_POINT($,(-60.,20.,5.));
#437=CARTESIAN_POINT($,(-49.0000000000001,-29.,5.));
#438=CARTESIAN_POINT('Origin',(59.,19.,0.));
#439=CARTESIAN_POINT('',(60.,18.,0.));
#440=CARTESIAN_POINT($,(60.,18.,0.));
#441=CARTESIAN_POINT('',(58.,20.,0.));
#442=CARTESIAN_POINT($,(49.0000000000001,29.,0.));
#443=CARTESIAN_POINT($,(58.,20.,0.));
#444=CARTESIAN_POINT('Origin',(60.,20.,0.));
#445=CARTESIAN_POINT('',(-58.,20.,0.));
#446=CARTESIAN_POINT($,(60.,20.,0.));
#447=CARTESIAN_POINT($,(-58.,20.,0.));
#448=CARTESIAN_POINT('Origin',(-59.,19.,0.));
#449=CARTESIAN_POINT('',(-60.,18.,0.));
#450=CARTESIAN_POINT($,(-49.0000000000001,29.,0.));
#451=CARTESIAN_POINT($,(-60.,18.,0.));
#452=CARTESIAN_POINT('Origin',(-59.,-19.,0.));
#453=CARTESIAN_POINT('',(-60.,-18.,0.));
#454=CARTESIAN_POINT($,(-60.,-18.,0.));
#455=CARTESIAN_POINT($,(-49.0000000000001,-29.,0.));
#456=CARTESIAN_POINT('Origin',(-60.,20.,0.));
#457=CARTESIAN_POINT($,(-60.,20.,0.));
#458=CARTESIAN_POINT('Origin',(60.,-20.,0.));
#459=CARTESIAN_POINT($,(60.,-20.,0.));
#460=CARTESIAN_POINT('Origin',(-1.66533453693773E-015,2.4980018054066E-015,
0.));
#461=UNCERTAINTY_MEASURE_WITH_UNIT(LENGTH_MEASURE(0.01),#463,
'DISTANCE_ACCURACY_VALUE',
'Maximum model space distance between geometric entities at asserted c
onnectivities');
#462=(
GEOMETRIC_REPRESENTATION_CONTEXT(3)
GLOBAL_UNCERTAINTY_ASSIGNED_CONTEXT((#461))
GLOBAL_UNIT_ASSIGNED_CONTEXT((#463,#466,#464))
REPRESENTATION_CONTEXT('','3D')
);
#463=(
LENGTH_UNIT()
NAMED_UNIT(*)
SI_UNIT(.MILLI.,.METRE.)
);
#464=(
NAMED_UNIT(*)
SI_UNIT($,.STERADIAN.)
SOLID_ANGLE_UNIT()
);
#465=DIMENSIONAL_EXPONENTS(0.,0.,0.,0.,0.,0.,0.);
#466=(
CONVERSION_BASED_UNIT('degree',#468)
NAMED_UNIT(#465)
PLANE_ANGLE_UNIT()
);
#467=(
NAMED_UNIT(*)
PLANE_ANGLE_UNIT()
SI_UNIT($,.RADIAN.)
);
#468=PLANE_ANGLE_MEASURE_WITH_UNIT(PLANE_ANGLE_MEASURE(0.01745329252),#467);
#469=SHAPE_DEFINITION_REPRESENTATION(#470,#471);
#470=PRODUCT_DEFINITION_SHAPE('',$,#473);
#471=SHAPE_REPRESENTATION('',(#284),#462);
#472=PRODUCT_DEFINITION_CONTEXT('3D Mechanical Parts',#476,'design');
#473=PRODUCT_DEFINITION('10533_KriTec_Lasche_8_120x40x5_schwarz',
'10533_KriTec_Lasche_8_120x40x5_schwarz',#474,#472);
#474=PRODUCT_DEFINITION_FORMATION('',$,#478);
#475=APPLICATION_PROTOCOL_DEFINITION('international standard',
'automotive_design',2009,#476);
#476=APPLICATION_CONTEXT(
'Core Data for Automotive Mechanical Design Process');
#477=PRODUCT_CONTEXT('3D Mechanical Parts',#476,'mechanical');
#478=PRODUCT('10533_KriTec_Lasche_8_120x40x5_schwarz',
'10533_KriTec_Lasche_8_120x40x5_schwarz',$,(#477));
#479=PRESENTATION_STYLE_ASSIGNMENT((#480));
#480=SURFACE_STYLE_USAGE(.BOTH.,#481);
#481=SURFACE_SIDE_STYLE($,(#482));
#482=SURFACE_STYLE_FILL_AREA(#483);
#483=FILL_AREA_STYLE($,(#484));
#484=FILL_AREA_STYLE_COLOUR($,#485);
#485=COLOUR_RGB('',0.501960784313725,0.501960784313725,0.501960784313725);
ENDSEC;
END-ISO-10303-21;
