ISO-10303-21;
HEADER;
/* Generated by software containing ST-Developer
 * from STEP Tools, Inc. (www.steptools.com) 
 */

FILE_DESCRIPTION(
/* description */ (''),
/* implementation_level */ '2;1');

FILE_NAME(
/* name */ 
'S:\\Bilder_neu\\10527_KriTec_Lasche_5_80x40x5_schwarz\\Inventordateie
n\\10527_KriTec_Lasche_5_80x40x5_schwarz.stp',
/* time_stamp */ '2014-06-04T16:07:10+02:00',
/* author */ ('kostic'),
/* organization */ (''),
/* preprocessor_version */ 'ST-DEVELOPER v15.2',
/* originating_system */ 'Autodesk Inventor 2014',
/* authorisation */ '');

FILE_SCHEMA (('AUTOMOTIVE_DESIGN { 1 0 10303 214 3 1 1 }'));
ENDSEC;

DATA;
#10=SHAPE_REPRESENTATION_RELATIONSHIP('SRR','None',#581,#11);
#11=ADVANCED_BREP_SHAPE_REPRESENTATION($,(#350),#572);
#12=STYLED_ITEM($,(#589),#350);
#13=LINE($,#524,#37);
#14=LINE($,#526,#38);
#15=LINE($,#528,#39);
#16=LINE($,#529,#40);
#17=LINE($,#532,#41);
#18=LINE($,#534,#42);
#19=LINE($,#535,#43);
#20=LINE($,#538,#44);
#21=LINE($,#540,#45);
#22=LINE($,#542,#46);
#23=LINE($,#544,#47);
#24=LINE($,#546,#48);
#25=LINE($,#547,#49);
#26=LINE($,#550,#50);
#27=LINE($,#552,#51);
#28=LINE($,#553,#52);
#29=LINE($,#556,#53);
#30=LINE($,#557,#54);
#31=LINE($,#560,#55);
#32=LINE($,#561,#56);
#33=LINE($,#564,#57);
#34=LINE($,#565,#58);
#35=LINE($,#567,#59);
#36=LINE($,#569,#60);
#37=VECTOR($,#438,2.82842712474619);
#38=VECTOR($,#439,5.);
#39=VECTOR($,#440,2.82842712474619);
#40=VECTOR($,#441,5.);
#41=VECTOR($,#444,76.);
#42=VECTOR($,#445,5.);
#43=VECTOR($,#446,76.);
#44=VECTOR($,#449,36.);
#45=VECTOR($,#450,2.82842712474619);
#46=VECTOR($,#451,76.);
#47=VECTOR($,#452,2.82842712474619);
#48=VECTOR($,#453,36.);
#49=VECTOR($,#454,2.82842712474619);
#50=VECTOR($,#457,5.);
#51=VECTOR($,#458,2.82842712474619);
#52=VECTOR($,#459,5.);
#53=VECTOR($,#462,76.);
#54=VECTOR($,#463,5.);
#55=VECTOR($,#466,2.82842712474619);
#56=VECTOR($,#467,5.);
#57=VECTOR($,#470,5.);
#58=VECTOR($,#471,2.82842712474619);
#59=VECTOR($,#474,36.);
#60=VECTOR($,#477,36.);
#61=PLANE($,#376);
#62=PLANE($,#377);
#63=PLANE($,#378);
#64=PLANE($,#379);
#65=PLANE($,#380);
#66=PLANE($,#381);
#67=PLANE($,#382);
#68=PLANE($,#383);
#69=PLANE($,#384);
#70=PLANE($,#385);
#71=FACE_BOUND($,#114,.T.);
#72=FACE_BOUND($,#116,.T.);
#73=FACE_BOUND($,#118,.T.);
#74=FACE_BOUND($,#120,.T.);
#75=FACE_BOUND($,#122,.T.);
#76=FACE_BOUND($,#124,.T.);
#77=FACE_BOUND($,#126,.T.);
#78=FACE_BOUND($,#128,.T.);
#79=FACE_BOUND($,#131,.T.);
#80=FACE_BOUND($,#132,.T.);
#81=FACE_BOUND($,#133,.T.);
#82=FACE_BOUND($,#134,.T.);
#83=FACE_BOUND($,#135,.T.);
#84=FACE_BOUND($,#136,.T.);
#85=FACE_BOUND($,#137,.T.);
#86=FACE_BOUND($,#138,.T.);
#87=FACE_BOUND($,#139,.T.);
#88=FACE_BOUND($,#146,.T.);
#89=FACE_BOUND($,#147,.T.);
#90=FACE_BOUND($,#148,.T.);
#91=FACE_BOUND($,#149,.T.);
#92=FACE_BOUND($,#150,.T.);
#93=FACE_BOUND($,#151,.T.);
#94=FACE_BOUND($,#152,.T.);
#95=FACE_BOUND($,#153,.T.);
#96=FACE_BOUND($,#154,.T.);
#97=FACE_OUTER_BOUND($,#113,.T.);
#98=FACE_OUTER_BOUND($,#115,.T.);
#99=FACE_OUTER_BOUND($,#117,.T.);
#100=FACE_OUTER_BOUND($,#119,.T.);
#101=FACE_OUTER_BOUND($,#121,.T.);
#102=FACE_OUTER_BOUND($,#123,.T.);
#103=FACE_OUTER_BOUND($,#125,.T.);
#104=FACE_OUTER_BOUND($,#127,.T.);
#105=FACE_OUTER_BOUND($,#129,.T.);
#106=FACE_OUTER_BOUND($,#130,.T.);
#107=FACE_OUTER_BOUND($,#140,.T.);
#108=FACE_OUTER_BOUND($,#141,.T.);
#109=FACE_OUTER_BOUND($,#142,.T.);
#110=FACE_OUTER_BOUND($,#143,.T.);
#111=FACE_OUTER_BOUND($,#144,.T.);
#112=FACE_OUTER_BOUND($,#145,.T.);
#113=EDGE_LOOP($,(#243));
#114=EDGE_LOOP($,(#244));
#115=EDGE_LOOP($,(#245));
#116=EDGE_LOOP($,(#246));
#117=EDGE_LOOP($,(#247));
#118=EDGE_LOOP($,(#248));
#119=EDGE_LOOP($,(#249));
#120=EDGE_LOOP($,(#250));
#121=EDGE_LOOP($,(#251));
#122=EDGE_LOOP($,(#252));
#123=EDGE_LOOP($,(#253));
#124=EDGE_LOOP($,(#254));
#125=EDGE_LOOP($,(#255));
#126=EDGE_LOOP($,(#256));
#127=EDGE_LOOP($,(#257));
#128=EDGE_LOOP($,(#258));
#129=EDGE_LOOP($,(#259,#260,#261,#262));
#130=EDGE_LOOP($,(#263,#264,#265,#266));
#131=EDGE_LOOP($,(#267));
#132=EDGE_LOOP($,(#268));
#133=EDGE_LOOP($,(#269));
#134=EDGE_LOOP($,(#270));
#135=EDGE_LOOP($,(#271));
#136=EDGE_LOOP($,(#272));
#137=EDGE_LOOP($,(#273));
#138=EDGE_LOOP($,(#274));
#139=EDGE_LOOP($,(#275,#276,#277,#278,#279,#280,#281,#282));
#140=EDGE_LOOP($,(#283,#284,#285,#286));
#141=EDGE_LOOP($,(#287,#288,#289,#290));
#142=EDGE_LOOP($,(#291,#292,#293,#294));
#143=EDGE_LOOP($,(#295,#296,#297,#298));
#144=EDGE_LOOP($,(#299,#300,#301,#302));
#145=EDGE_LOOP($,(#303,#304,#305,#306));
#146=EDGE_LOOP($,(#307));
#147=EDGE_LOOP($,(#308));
#148=EDGE_LOOP($,(#309));
#149=EDGE_LOOP($,(#310));
#150=EDGE_LOOP($,(#311));
#151=EDGE_LOOP($,(#312));
#152=EDGE_LOOP($,(#313));
#153=EDGE_LOOP($,(#314));
#154=EDGE_LOOP($,(#315,#316,#317,#318,#319,#320,#321,#322));
#155=CIRCLE($,#353,2.75);
#156=CIRCLE($,#354,2.75);
#157=CIRCLE($,#356,2.75);
#158=CIRCLE($,#357,2.75);
#159=CIRCLE($,#359,2.75);
#160=CIRCLE($,#360,2.75);
#161=CIRCLE($,#362,2.75);
#162=CIRCLE($,#363,2.75);
#163=CIRCLE($,#365,2.75);
#164=CIRCLE($,#366,2.75);
#165=CIRCLE($,#368,2.75);
#166=CIRCLE($,#369,2.75);
#167=CIRCLE($,#371,2.75);
#168=CIRCLE($,#372,2.75);
#169=CIRCLE($,#374,2.75);
#170=CIRCLE($,#375,2.75);
#171=VERTEX_POINT($,#482);
#172=VERTEX_POINT($,#484);
#173=VERTEX_POINT($,#487);
#174=VERTEX_POINT($,#489);
#175=VERTEX_POINT($,#492);
#176=VERTEX_POINT($,#494);
#177=VERTEX_POINT($,#497);
#178=VERTEX_POINT($,#499);
#179=VERTEX_POINT($,#502);
#180=VERTEX_POINT($,#504);
#181=VERTEX_POINT($,#507);
#182=VERTEX_POINT($,#509);
#183=VERTEX_POINT($,#512);
#184=VERTEX_POINT($,#514);
#185=VERTEX_POINT($,#517);
#186=VERTEX_POINT($,#519);
#187=VERTEX_POINT($,#522);
#188=VERTEX_POINT($,#523);
#189=VERTEX_POINT($,#525);
#190=VERTEX_POINT($,#527);
#191=VERTEX_POINT($,#531);
#192=VERTEX_POINT($,#533);
#193=VERTEX_POINT($,#537);
#194=VERTEX_POINT($,#539);
#195=VERTEX_POINT($,#541);
#196=VERTEX_POINT($,#543);
#197=VERTEX_POINT($,#545);
#198=VERTEX_POINT($,#549);
#199=VERTEX_POINT($,#551);
#200=VERTEX_POINT($,#555);
#201=VERTEX_POINT($,#559);
#202=VERTEX_POINT($,#563);
#203=EDGE_CURVE($,#171,#171,#155,.T.);
#204=EDGE_CURVE($,#172,#172,#156,.T.);
#205=EDGE_CURVE($,#173,#173,#157,.T.);
#206=EDGE_CURVE($,#174,#174,#158,.T.);
#207=EDGE_CURVE($,#175,#175,#159,.T.);
#208=EDGE_CURVE($,#176,#176,#160,.T.);
#209=EDGE_CURVE($,#177,#177,#161,.T.);
#210=EDGE_CURVE($,#178,#178,#162,.T.);
#211=EDGE_CURVE($,#179,#179,#163,.T.);
#212=EDGE_CURVE($,#180,#180,#164,.T.);
#213=EDGE_CURVE($,#181,#181,#165,.T.);
#214=EDGE_CURVE($,#182,#182,#166,.T.);
#215=EDGE_CURVE($,#183,#183,#167,.T.);
#216=EDGE_CURVE($,#184,#184,#168,.T.);
#217=EDGE_CURVE($,#185,#185,#169,.T.);
#218=EDGE_CURVE($,#186,#186,#170,.T.);
#219=EDGE_CURVE($,#187,#188,#13,.T.);
#220=EDGE_CURVE($,#188,#189,#14,.T.);
#221=EDGE_CURVE($,#189,#190,#15,.T.);
#222=EDGE_CURVE($,#190,#187,#16,.T.);
#223=EDGE_CURVE($,#191,#188,#17,.T.);
#224=EDGE_CURVE($,#192,#191,#18,.T.);
#225=EDGE_CURVE($,#192,#189,#19,.T.);
#226=EDGE_CURVE($,#187,#193,#20,.T.);
#227=EDGE_CURVE($,#194,#193,#21,.T.);
#228=EDGE_CURVE($,#194,#195,#22,.T.);
#229=EDGE_CURVE($,#196,#195,#23,.T.);
#230=EDGE_CURVE($,#196,#197,#24,.T.);
#231=EDGE_CURVE($,#191,#197,#25,.T.);
#232=EDGE_CURVE($,#193,#198,#26,.T.);
#233=EDGE_CURVE($,#198,#199,#27,.T.);
#234=EDGE_CURVE($,#199,#194,#28,.T.);
#235=EDGE_CURVE($,#199,#200,#29,.T.);
#236=EDGE_CURVE($,#195,#200,#30,.T.);
#237=EDGE_CURVE($,#200,#201,#31,.T.);
#238=EDGE_CURVE($,#201,#196,#32,.T.);
#239=EDGE_CURVE($,#197,#202,#33,.T.);
#240=EDGE_CURVE($,#202,#192,#34,.T.);
#241=EDGE_CURVE($,#201,#202,#35,.T.);
#242=EDGE_CURVE($,#190,#198,#36,.T.);
#243=ORIENTED_EDGE($,*,*,#203,.F.);
#244=ORIENTED_EDGE($,*,*,#204,.F.);
#245=ORIENTED_EDGE($,*,*,#205,.F.);
#246=ORIENTED_EDGE($,*,*,#206,.F.);
#247=ORIENTED_EDGE($,*,*,#207,.F.);
#248=ORIENTED_EDGE($,*,*,#208,.F.);
#249=ORIENTED_EDGE($,*,*,#209,.F.);
#250=ORIENTED_EDGE($,*,*,#210,.F.);
#251=ORIENTED_EDGE($,*,*,#211,.F.);
#252=ORIENTED_EDGE($,*,*,#212,.F.);
#253=ORIENTED_EDGE($,*,*,#213,.F.);
#254=ORIENTED_EDGE($,*,*,#214,.F.);
#255=ORIENTED_EDGE($,*,*,#215,.F.);
#256=ORIENTED_EDGE($,*,*,#216,.F.);
#257=ORIENTED_EDGE($,*,*,#217,.F.);
#258=ORIENTED_EDGE($,*,*,#218,.F.);
#259=ORIENTED_EDGE($,*,*,#219,.T.);
#260=ORIENTED_EDGE($,*,*,#220,.T.);
#261=ORIENTED_EDGE($,*,*,#221,.T.);
#262=ORIENTED_EDGE($,*,*,#222,.T.);
#263=ORIENTED_EDGE($,*,*,#220,.F.);
#264=ORIENTED_EDGE($,*,*,#223,.F.);
#265=ORIENTED_EDGE($,*,*,#224,.F.);
#266=ORIENTED_EDGE($,*,*,#225,.T.);
#267=ORIENTED_EDGE($,*,*,#204,.T.);
#268=ORIENTED_EDGE($,*,*,#206,.T.);
#269=ORIENTED_EDGE($,*,*,#208,.T.);
#270=ORIENTED_EDGE($,*,*,#210,.T.);
#271=ORIENTED_EDGE($,*,*,#212,.T.);
#272=ORIENTED_EDGE($,*,*,#214,.T.);
#273=ORIENTED_EDGE($,*,*,#216,.T.);
#274=ORIENTED_EDGE($,*,*,#218,.T.);
#275=ORIENTED_EDGE($,*,*,#219,.F.);
#276=ORIENTED_EDGE($,*,*,#226,.T.);
#277=ORIENTED_EDGE($,*,*,#227,.F.);
#278=ORIENTED_EDGE($,*,*,#228,.T.);
#279=ORIENTED_EDGE($,*,*,#229,.F.);
#280=ORIENTED_EDGE($,*,*,#230,.T.);
#281=ORIENTED_EDGE($,*,*,#231,.F.);
#282=ORIENTED_EDGE($,*,*,#223,.T.);
#283=ORIENTED_EDGE($,*,*,#227,.T.);
#284=ORIENTED_EDGE($,*,*,#232,.T.);
#285=ORIENTED_EDGE($,*,*,#233,.T.);
#286=ORIENTED_EDGE($,*,*,#234,.T.);
#287=ORIENTED_EDGE($,*,*,#234,.F.);
#288=ORIENTED_EDGE($,*,*,#235,.T.);
#289=ORIENTED_EDGE($,*,*,#236,.F.);
#290=ORIENTED_EDGE($,*,*,#228,.F.);
#291=ORIENTED_EDGE($,*,*,#229,.T.);
#292=ORIENTED_EDGE($,*,*,#236,.T.);
#293=ORIENTED_EDGE($,*,*,#237,.T.);
#294=ORIENTED_EDGE($,*,*,#238,.T.);
#295=ORIENTED_EDGE($,*,*,#231,.T.);
#296=ORIENTED_EDGE($,*,*,#239,.T.);
#297=ORIENTED_EDGE($,*,*,#240,.T.);
#298=ORIENTED_EDGE($,*,*,#224,.T.);
#299=ORIENTED_EDGE($,*,*,#238,.F.);
#300=ORIENTED_EDGE($,*,*,#241,.T.);
#301=ORIENTED_EDGE($,*,*,#239,.F.);
#302=ORIENTED_EDGE($,*,*,#230,.F.);
#303=ORIENTED_EDGE($,*,*,#222,.F.);
#304=ORIENTED_EDGE($,*,*,#242,.T.);
#305=ORIENTED_EDGE($,*,*,#232,.F.);
#306=ORIENTED_EDGE($,*,*,#226,.F.);
#307=ORIENTED_EDGE($,*,*,#203,.T.);
#308=ORIENTED_EDGE($,*,*,#205,.T.);
#309=ORIENTED_EDGE($,*,*,#207,.T.);
#310=ORIENTED_EDGE($,*,*,#209,.T.);
#311=ORIENTED_EDGE($,*,*,#211,.T.);
#312=ORIENTED_EDGE($,*,*,#213,.T.);
#313=ORIENTED_EDGE($,*,*,#215,.T.);
#314=ORIENTED_EDGE($,*,*,#217,.T.);
#315=ORIENTED_EDGE($,*,*,#221,.F.);
#316=ORIENTED_EDGE($,*,*,#225,.F.);
#317=ORIENTED_EDGE($,*,*,#240,.F.);
#318=ORIENTED_EDGE($,*,*,#241,.F.);
#319=ORIENTED_EDGE($,*,*,#237,.F.);
#320=ORIENTED_EDGE($,*,*,#235,.F.);
#321=ORIENTED_EDGE($,*,*,#233,.F.);
#322=ORIENTED_EDGE($,*,*,#242,.F.);
#323=CYLINDRICAL_SURFACE($,#352,2.75);
#324=CYLINDRICAL_SURFACE($,#355,2.75);
#325=CYLINDRICAL_SURFACE($,#358,2.75);
#326=CYLINDRICAL_SURFACE($,#361,2.75);
#327=CYLINDRICAL_SURFACE($,#364,2.75);
#328=CYLINDRICAL_SURFACE($,#367,2.75);
#329=CYLINDRICAL_SURFACE($,#370,2.75);
#330=CYLINDRICAL_SURFACE($,#373,2.75);
#331=ADVANCED_FACE($,(#97,#71),#323,.F.);
#332=ADVANCED_FACE($,(#98,#72),#324,.F.);
#333=ADVANCED_FACE($,(#99,#73),#325,.F.);
#334=ADVANCED_FACE($,(#100,#74),#326,.F.);
#335=ADVANCED_FACE($,(#101,#75),#327,.F.);
#336=ADVANCED_FACE($,(#102,#76),#328,.F.);
#337=ADVANCED_FACE($,(#103,#77),#329,.F.);
#338=ADVANCED_FACE($,(#104,#78),#330,.F.);
#339=ADVANCED_FACE($,(#105),#61,.T.);
#340=ADVANCED_FACE($,(#106),#62,.T.);
#341=ADVANCED_FACE($,(#79,#80,#81,#82,#83,#84,#85,#86,#87),#63,.T.);
#342=ADVANCED_FACE($,(#107),#64,.T.);
#343=ADVANCED_FACE($,(#108),#65,.T.);
#344=ADVANCED_FACE($,(#109),#66,.T.);
#345=ADVANCED_FACE($,(#110),#67,.T.);
#346=ADVANCED_FACE($,(#111),#68,.T.);
#347=ADVANCED_FACE($,(#112),#69,.T.);
#348=ADVANCED_FACE($,(#88,#89,#90,#91,#92,#93,#94,#95,#96),#70,.F.);
#349=CLOSED_SHELL($,(#331,#332,#333,#334,#335,#336,#337,#338,#339,#340,
#341,#342,#343,#344,#345,#346,#347,#348));
#350=MANIFOLD_SOLID_BREP('Volumenk\X\F6rper4',#349);
#351=AXIS2_PLACEMENT_3D('placement',#480,#386,#387);
#352=AXIS2_PLACEMENT_3D($,#481,#388,#389);
#353=AXIS2_PLACEMENT_3D($,#483,#390,#391);
#354=AXIS2_PLACEMENT_3D($,#485,#392,#393);
#355=AXIS2_PLACEMENT_3D($,#486,#394,#395);
#356=AXIS2_PLACEMENT_3D($,#488,#396,#397);
#357=AXIS2_PLACEMENT_3D($,#490,#398,#399);
#358=AXIS2_PLACEMENT_3D($,#491,#400,#401);
#359=AXIS2_PLACEMENT_3D($,#493,#402,#403);
#360=AXIS2_PLACEMENT_3D($,#495,#404,#405);
#361=AXIS2_PLACEMENT_3D($,#496,#406,#407);
#362=AXIS2_PLACEMENT_3D($,#498,#408,#409);
#363=AXIS2_PLACEMENT_3D($,#500,#410,#411);
#364=AXIS2_PLACEMENT_3D($,#501,#412,#413);
#365=AXIS2_PLACEMENT_3D($,#503,#414,#415);
#366=AXIS2_PLACEMENT_3D($,#505,#416,#417);
#367=AXIS2_PLACEMENT_3D($,#506,#418,#419);
#368=AXIS2_PLACEMENT_3D($,#508,#420,#421);
#369=AXIS2_PLACEMENT_3D($,#510,#422,#423);
#370=AXIS2_PLACEMENT_3D($,#511,#424,#425);
#371=AXIS2_PLACEMENT_3D($,#513,#426,#427);
#372=AXIS2_PLACEMENT_3D($,#515,#428,#429);
#373=AXIS2_PLACEMENT_3D($,#516,#430,#431);
#374=AXIS2_PLACEMENT_3D($,#518,#432,#433);
#375=AXIS2_PLACEMENT_3D($,#520,#434,#435);
#376=AXIS2_PLACEMENT_3D($,#521,#436,#437);
#377=AXIS2_PLACEMENT_3D($,#530,#442,#443);
#378=AXIS2_PLACEMENT_3D($,#536,#447,#448);
#379=AXIS2_PLACEMENT_3D($,#548,#455,#456);
#380=AXIS2_PLACEMENT_3D($,#554,#460,#461);
#381=AXIS2_PLACEMENT_3D($,#558,#464,#465);
#382=AXIS2_PLACEMENT_3D($,#562,#468,#469);
#383=AXIS2_PLACEMENT_3D($,#566,#472,#473);
#384=AXIS2_PLACEMENT_3D($,#568,#475,#476);
#385=AXIS2_PLACEMENT_3D($,#570,#478,#479);
#386=DIRECTION('axis',(0.,0.,1.));
#387=DIRECTION('refdir',(1.,0.,0.));
#388=DIRECTION('center_axis',(0.,0.,1.));
#389=DIRECTION('ref_axis',(1.,0.,0.));
#390=DIRECTION('center_axis',(0.,0.,1.));
#391=DIRECTION('ref_axis',(1.,0.,0.));
#392=DIRECTION('center_axis',(0.,0.,-1.));
#393=DIRECTION('ref_axis',(1.,0.,0.));
#394=DIRECTION('center_axis',(0.,0.,1.));
#395=DIRECTION('ref_axis',(1.,0.,0.));
#396=DIRECTION('center_axis',(0.,0.,1.));
#397=DIRECTION('ref_axis',(1.,0.,0.));
#398=DIRECTION('center_axis',(0.,0.,-1.));
#399=DIRECTION('ref_axis',(1.,0.,0.));
#400=DIRECTION('center_axis',(0.,0.,1.));
#401=DIRECTION('ref_axis',(1.,0.,0.));
#402=DIRECTION('center_axis',(0.,0.,1.));
#403=DIRECTION('ref_axis',(1.,0.,0.));
#404=DIRECTION('center_axis',(0.,0.,-1.));
#405=DIRECTION('ref_axis',(1.,0.,0.));
#406=DIRECTION('center_axis',(0.,0.,1.));
#407=DIRECTION('ref_axis',(1.,0.,0.));
#408=DIRECTION('center_axis',(0.,0.,1.));
#409=DIRECTION('ref_axis',(1.,0.,0.));
#410=DIRECTION('center_axis',(0.,0.,-1.));
#411=DIRECTION('ref_axis',(1.,0.,0.));
#412=DIRECTION('center_axis',(0.,0.,1.));
#413=DIRECTION('ref_axis',(1.,0.,0.));
#414=DIRECTION('center_axis',(0.,0.,1.));
#415=DIRECTION('ref_axis',(1.,0.,0.));
#416=DIRECTION('center_axis',(0.,0.,-1.));
#417=DIRECTION('ref_axis',(1.,0.,0.));
#418=DIRECTION('center_axis',(0.,0.,1.));
#419=DIRECTION('ref_axis',(1.,0.,0.));
#420=DIRECTION('center_axis',(0.,0.,1.));
#421=DIRECTION('ref_axis',(1.,0.,0.));
#422=DIRECTION('center_axis',(0.,0.,-1.));
#423=DIRECTION('ref_axis',(1.,0.,0.));
#424=DIRECTION('center_axis',(0.,0.,1.));
#425=DIRECTION('ref_axis',(1.,0.,0.));
#426=DIRECTION('center_axis',(0.,0.,1.));
#427=DIRECTION('ref_axis',(1.,0.,0.));
#428=DIRECTION('center_axis',(0.,0.,-1.));
#429=DIRECTION('ref_axis',(1.,0.,0.));
#430=DIRECTION('center_axis',(0.,0.,1.));
#431=DIRECTION('ref_axis',(1.,0.,0.));
#432=DIRECTION('center_axis',(0.,0.,1.));
#433=DIRECTION('ref_axis',(1.,0.,0.));
#434=DIRECTION('center_axis',(0.,0.,-1.));
#435=DIRECTION('ref_axis',(1.,0.,0.));
#436=DIRECTION('center_axis',(0.707106781186547,-0.707106781186548,0.));
#437=DIRECTION('ref_axis',(0.,0.,-1.));
#438=DIRECTION($,(-0.707106781186548,-0.707106781186547,0.));
#439=DIRECTION($,(0.,0.,-1.));
#440=DIRECTION($,(0.707106781186548,0.707106781186547,0.));
#441=DIRECTION($,(0.,0.,1.));
#442=DIRECTION('center_axis',(1.11022302462516E-016,-1.,0.));
#443=DIRECTION('ref_axis',(1.,0.,0.));
#444=DIRECTION($,(1.,1.11022302462516E-016,0.));
#445=DIRECTION($,(0.,0.,1.));
#446=DIRECTION($,(1.,1.11022302462516E-016,0.));
#447=DIRECTION('center_axis',(0.,0.,1.));
#448=DIRECTION('ref_axis',(1.,0.,0.));
#449=DIRECTION($,(0.,1.,0.));
#450=DIRECTION($,(0.707106781186548,-0.707106781186548,0.));
#451=DIRECTION($,(-1.,0.,0.));
#452=DIRECTION($,(0.707106781186548,0.707106781186548,0.));
#453=DIRECTION($,(0.,-1.,0.));
#454=DIRECTION($,(-0.707106781186548,0.707106781186548,0.));
#455=DIRECTION('center_axis',(0.707106781186548,0.707106781186548,0.));
#456=DIRECTION('ref_axis',(0.,0.,-1.));
#457=DIRECTION($,(0.,0.,-1.));
#458=DIRECTION($,(-0.707106781186548,0.707106781186548,0.));
#459=DIRECTION($,(0.,0.,1.));
#460=DIRECTION('center_axis',(0.,1.,0.));
#461=DIRECTION('ref_axis',(-1.,0.,0.));
#462=DIRECTION($,(-1.,0.,0.));
#463=DIRECTION($,(0.,0.,-1.));
#464=DIRECTION('center_axis',(-0.707106781186548,0.707106781186548,0.));
#465=DIRECTION('ref_axis',(0.,0.,1.));
#466=DIRECTION($,(-0.707106781186548,-0.707106781186548,0.));
#467=DIRECTION($,(0.,0.,1.));
#468=DIRECTION('center_axis',(-0.707106781186548,-0.707106781186548,0.));
#469=DIRECTION('ref_axis',(0.,0.,1.));
#470=DIRECTION($,(0.,0.,-1.));
#471=DIRECTION($,(0.707106781186548,-0.707106781186548,0.));
#472=DIRECTION('center_axis',(-1.,0.,0.));
#473=DIRECTION('ref_axis',(0.,-1.,0.));
#474=DIRECTION($,(0.,-1.,0.));
#475=DIRECTION('center_axis',(1.,0.,0.));
#476=DIRECTION('ref_axis',(0.,1.,0.));
#477=DIRECTION($,(0.,1.,0.));
#478=DIRECTION('center_axis',(0.,0.,1.));
#479=DIRECTION('ref_axis',(1.,0.,0.));
#480=CARTESIAN_POINT('',(0.,0.,0.));
#481=CARTESIAN_POINT('Origin',(-10.,-10.,-84.5823643358446));
#482=CARTESIAN_POINT('',(-12.75,-10.,0.));
#483=CARTESIAN_POINT('Origin',(-10.,-10.,0.));
#484=CARTESIAN_POINT('',(-7.25,-10.,5.));
#485=CARTESIAN_POINT('Origin',(-10.,-10.,5.));
#486=CARTESIAN_POINT('Origin',(30.,-10.,-84.5823643358446));
#487=CARTESIAN_POINT('',(27.25,-10.,0.));
#488=CARTESIAN_POINT('Origin',(30.,-10.,0.));
#489=CARTESIAN_POINT('',(32.75,-10.,5.));
#490=CARTESIAN_POINT('Origin',(30.,-10.,5.));
#491=CARTESIAN_POINT('Origin',(10.,10.,-84.5823643358446));
#492=CARTESIAN_POINT('',(7.25,10.,0.));
#493=CARTESIAN_POINT('Origin',(10.,10.,0.));
#494=CARTESIAN_POINT('',(12.75,10.,5.));
#495=CARTESIAN_POINT('Origin',(10.,10.,5.));
#496=CARTESIAN_POINT('Origin',(-30.,10.,-84.5823643358446));
#497=CARTESIAN_POINT('',(-32.75,10.,0.));
#498=CARTESIAN_POINT('Origin',(-30.,10.,0.));
#499=CARTESIAN_POINT('',(-27.25,10.,5.));
#500=CARTESIAN_POINT('Origin',(-30.,10.,5.));
#501=CARTESIAN_POINT('Origin',(-10.,10.,-84.5823643358446));
#502=CARTESIAN_POINT('',(-12.75,10.,0.));
#503=CARTESIAN_POINT('Origin',(-10.,10.,0.));
#504=CARTESIAN_POINT('',(-7.25,10.,5.));
#505=CARTESIAN_POINT('Origin',(-10.,10.,5.));
#506=CARTESIAN_POINT('Origin',(30.,10.,-84.5823643358446));
#507=CARTESIAN_POINT('',(27.25,10.,0.));
#508=CARTESIAN_POINT('Origin',(30.,10.,0.));
#509=CARTESIAN_POINT('',(32.75,10.,5.));
#510=CARTESIAN_POINT('Origin',(30.,10.,5.));
#511=CARTESIAN_POINT('Origin',(10.,-10.,-84.5823643358446));
#512=CARTESIAN_POINT('',(7.25,-10.,0.));
#513=CARTESIAN_POINT('Origin',(10.,-10.,0.));
#514=CARTESIAN_POINT('',(12.75,-10.,5.));
#515=CARTESIAN_POINT('Origin',(10.,-10.,5.));
#516=CARTESIAN_POINT('Origin',(-30.,-10.,-84.5823643358446));
#517=CARTESIAN_POINT('',(-32.75,-10.,0.));
#518=CARTESIAN_POINT('Origin',(-30.,-10.,0.));
#519=CARTESIAN_POINT('',(-27.25,-10.,5.));
#520=CARTESIAN_POINT('Origin',(-30.,-10.,5.));
#521=CARTESIAN_POINT('Origin',(39.,-19.,0.));
#522=CARTESIAN_POINT('',(40.,-18.,5.));
#523=CARTESIAN_POINT('',(38.,-20.,5.));
#524=CARTESIAN_POINT($,(34.,-24.,5.));
#525=CARTESIAN_POINT('',(38.,-20.,0.));
#526=CARTESIAN_POINT($,(38.,-20.,0.));
#527=CARTESIAN_POINT('',(40.,-18.,0.));
#528=CARTESIAN_POINT($,(34.,-24.,0.));
#529=CARTESIAN_POINT($,(40.,-18.,0.));
#530=CARTESIAN_POINT('Origin',(-40.,-20.,0.));
#531=CARTESIAN_POINT('',(-38.,-20.,5.));
#532=CARTESIAN_POINT($,(-40.,-20.,5.));
#533=CARTESIAN_POINT('',(-38.,-20.,0.));
#534=CARTESIAN_POINT($,(-38.,-20.,0.));
#535=CARTESIAN_POINT($,(-40.,-20.,0.));
#536=CARTESIAN_POINT('Origin',(0.,4.44089209850063E-015,5.));
#537=CARTESIAN_POINT('',(40.,18.,5.));
#538=CARTESIAN_POINT($,(40.,-20.,5.));
#539=CARTESIAN_POINT('',(38.,20.,5.));
#540=CARTESIAN_POINT($,(34.,24.,5.));
#541=CARTESIAN_POINT('',(-38.,20.,5.));
#542=CARTESIAN_POINT($,(40.,20.,5.));
#543=CARTESIAN_POINT('',(-40.,18.,5.));
#544=CARTESIAN_POINT($,(-34.,24.,5.));
#545=CARTESIAN_POINT('',(-40.,-18.,5.));
#546=CARTESIAN_POINT($,(-40.,20.,5.));
#547=CARTESIAN_POINT($,(-34.,-24.,5.));
#548=CARTESIAN_POINT('Origin',(39.,19.,0.));
#549=CARTESIAN_POINT('',(40.,18.,0.));
#550=CARTESIAN_POINT($,(40.,18.,0.));
#551=CARTESIAN_POINT('',(38.,20.,0.));
#552=CARTESIAN_POINT($,(34.,24.,0.));
#553=CARTESIAN_POINT($,(38.,20.,0.));
#554=CARTESIAN_POINT('Origin',(40.,20.,0.));
#555=CARTESIAN_POINT('',(-38.,20.,0.));
#556=CARTESIAN_POINT($,(40.,20.,0.));
#557=CARTESIAN_POINT($,(-38.,20.,0.));
#558=CARTESIAN_POINT('Origin',(-39.,19.,0.));
#559=CARTESIAN_POINT('',(-40.,18.,0.));
#560=CARTESIAN_POINT($,(-34.,24.,0.));
#561=CARTESIAN_POINT($,(-40.,18.,0.));
#562=CARTESIAN_POINT('Origin',(-39.,-19.,0.));
#563=CARTESIAN_POINT('',(-40.,-18.,0.));
#564=CARTESIAN_POINT($,(-40.,-18.,0.));
#565=CARTESIAN_POINT($,(-34.,-24.,0.));
#566=CARTESIAN_POINT('Origin',(-40.,20.,0.));
#567=CARTESIAN_POINT($,(-40.,20.,0.));
#568=CARTESIAN_POINT('Origin',(40.,-20.,0.));
#569=CARTESIAN_POINT($,(40.,-20.,0.));
#570=CARTESIAN_POINT('Origin',(-2.22044604925031E-015,3.33066907387547E-015,
0.));
#571=UNCERTAINTY_MEASURE_WITH_UNIT(LENGTH_MEASURE(0.01),#573,
'DISTANCE_ACCURACY_VALUE',
'Maximum model space distance between geometric entities at asserted c
onnectivities');
#572=(
GEOMETRIC_REPRESENTATION_CONTEXT(3)
GLOBAL_UNCERTAINTY_ASSIGNED_CONTEXT((#571))
GLOBAL_UNIT_ASSIGNED_CONTEXT((#573,#576,#574))
REPRESENTATION_CONTEXT('','3D')
);
#573=(
LENGTH_UNIT()
NAMED_UNIT(*)
SI_UNIT(.MILLI.,.METRE.)
);
#574=(
NAMED_UNIT(*)
SI_UNIT($,.STERADIAN.)
SOLID_ANGLE_UNIT()
);
#575=DIMENSIONAL_EXPONENTS(0.,0.,0.,0.,0.,0.,0.);
#576=(
CONVERSION_BASED_UNIT('degree',#578)
NAMED_UNIT(#575)
PLANE_ANGLE_UNIT()
);
#577=(
NAMED_UNIT(*)
PLANE_ANGLE_UNIT()
SI_UNIT($,.RADIAN.)
);
#578=PLANE_ANGLE_MEASURE_WITH_UNIT(PLANE_ANGLE_MEASURE(0.01745329252),#577);
#579=SHAPE_DEFINITION_REPRESENTATION(#580,#581);
#580=PRODUCT_DEFINITION_SHAPE('',$,#583);
#581=SHAPE_REPRESENTATION('',(#351),#572);
#582=PRODUCT_DEFINITION_CONTEXT('3D Mechanical Parts',#586,'design');
#583=PRODUCT_DEFINITION('10527_KriTec_Lasche_5_80x40x5_schwarz',
'10527_KriTec_Lasche_5_80x40x5_schwarz',#584,#582);
#584=PRODUCT_DEFINITION_FORMATION('',$,#588);
#585=APPLICATION_PROTOCOL_DEFINITION('international standard',
'automotive_design',2009,#586);
#586=APPLICATION_CONTEXT(
'Core Data for Automotive Mechanical Design Process');
#587=PRODUCT_CONTEXT('3D Mechanical Parts',#586,'mechanical');
#588=PRODUCT('10527_KriTec_Lasche_5_80x40x5_schwarz',
'10527_KriTec_Lasche_5_80x40x5_schwarz',$,(#587));
#589=PRESENTATION_STYLE_ASSIGNMENT((#590));
#590=SURFACE_STYLE_USAGE(.BOTH.,#591);
#591=SURFACE_SIDE_STYLE($,(#592));
#592=SURFACE_STYLE_FILL_AREA(#593);
#593=FILL_AREA_STYLE($,(#594));
#594=FILL_AREA_STYLE_COLOUR($,#595);
#595=COLOUR_RGB('',0.0196078431372549,0.0196078431372549,0.0196078431372549);
ENDSEC;
END-ISO-10303-21;
