ISO-10303-21;
HEADER;
/* Generated by software containing ST-Developer
 * from STEP Tools, Inc. (www.steptools.com) 
 */

FILE_DESCRIPTION(
/* description */ (''),
/* implementation_level */ '2;1');

FILE_NAME(
/* name */ 
'S:\\Bilder_neu\\10525_KriTec_Lasche_5_80x20x3_schwarz\\Inventordateie
n\\10525_KriTec_Lasche_5_80x20x3_schwarz.stp',
/* time_stamp */ '2015-10-28T09:08:03+01:00',
/* author */ ('kostic'),
/* organization */ (''),
/* preprocessor_version */ 'ST-DEVELOPER v15.2',
/* originating_system */ 'Autodesk Inventor 2014',
/* authorisation */ '');

FILE_SCHEMA (('CONFIG_CONTROL_DESIGN'));
ENDSEC;

DATA;
#10=MECHANICAL_DESIGN_GEOMETRIC_PRESENTATION_REPRESENTATION('',(#13),#439);
#11=SHAPE_REPRESENTATION_RELATIONSHIP('SRR','None',#448,#12);
#12=ADVANCED_BREP_SHAPE_REPRESENTATION($,(#271),#438);
#13=STYLED_ITEM('',(#457),#271);
#14=LINE('',#389,#38);
#15=LINE('',#391,#39);
#16=LINE('',#393,#40);
#17=LINE('',#394,#41);
#18=LINE('',#397,#42);
#19=LINE('',#399,#43);
#20=LINE('',#400,#44);
#21=LINE('',#403,#45);
#22=LINE('',#405,#46);
#23=LINE('',#407,#47);
#24=LINE('',#409,#48);
#25=LINE('',#411,#49);
#26=LINE('',#412,#50);
#27=LINE('',#415,#51);
#28=LINE('',#417,#52);
#29=LINE('',#418,#53);
#30=LINE('',#421,#54);
#31=LINE('',#422,#55);
#32=LINE('',#425,#56);
#33=LINE('',#426,#57);
#34=LINE('',#429,#58);
#35=LINE('',#430,#59);
#36=LINE('',#432,#60);
#37=LINE('',#434,#61);
#38=VECTOR('',#323,2.82842712474619);
#39=VECTOR('',#324,3.);
#40=VECTOR('',#325,2.82842712474619);
#41=VECTOR('',#326,3.);
#42=VECTOR('',#329,76.);
#43=VECTOR('',#330,3.);
#44=VECTOR('',#331,76.);
#45=VECTOR('',#334,16.);
#46=VECTOR('',#335,2.82842712474619);
#47=VECTOR('',#336,76.);
#48=VECTOR('',#337,2.82842712474619);
#49=VECTOR('',#338,16.);
#50=VECTOR('',#339,2.82842712474619);
#51=VECTOR('',#342,3.);
#52=VECTOR('',#343,2.82842712474619);
#53=VECTOR('',#344,3.);
#54=VECTOR('',#347,76.);
#55=VECTOR('',#348,3.);
#56=VECTOR('',#351,2.82842712474619);
#57=VECTOR('',#352,3.);
#58=VECTOR('',#355,3.);
#59=VECTOR('',#356,2.82842712474619);
#60=VECTOR('',#359,16.);
#61=VECTOR('',#362,16.);
#62=PLANE('',#285);
#63=PLANE('',#286);
#64=PLANE('',#287);
#65=PLANE('',#288);
#66=PLANE('',#289);
#67=PLANE('',#290);
#68=PLANE('',#291);
#69=PLANE('',#292);
#70=PLANE('',#293);
#71=PLANE('',#294);
#72=FACE_BOUND('',#99,.T.);
#73=FACE_BOUND('',#101,.T.);
#74=FACE_BOUND('',#103,.T.);
#75=FACE_BOUND('',#105,.T.);
#76=FACE_BOUND('',#108,.T.);
#77=FACE_BOUND('',#109,.T.);
#78=FACE_BOUND('',#110,.T.);
#79=FACE_BOUND('',#111,.T.);
#80=FACE_BOUND('',#112,.T.);
#81=FACE_BOUND('',#119,.T.);
#82=FACE_BOUND('',#120,.T.);
#83=FACE_BOUND('',#121,.T.);
#84=FACE_BOUND('',#122,.T.);
#85=FACE_BOUND('',#123,.T.);
#86=FACE_OUTER_BOUND('',#98,.T.);
#87=FACE_OUTER_BOUND('',#100,.T.);
#88=FACE_OUTER_BOUND('',#102,.T.);
#89=FACE_OUTER_BOUND('',#104,.T.);
#90=FACE_OUTER_BOUND('',#106,.T.);
#91=FACE_OUTER_BOUND('',#107,.T.);
#92=FACE_OUTER_BOUND('',#113,.T.);
#93=FACE_OUTER_BOUND('',#114,.T.);
#94=FACE_OUTER_BOUND('',#115,.T.);
#95=FACE_OUTER_BOUND('',#116,.T.);
#96=FACE_OUTER_BOUND('',#117,.T.);
#97=FACE_OUTER_BOUND('',#118,.T.);
#98=EDGE_LOOP('',(#188));
#99=EDGE_LOOP('',(#189));
#100=EDGE_LOOP('',(#190));
#101=EDGE_LOOP('',(#191));
#102=EDGE_LOOP('',(#192));
#103=EDGE_LOOP('',(#193));
#104=EDGE_LOOP('',(#194));
#105=EDGE_LOOP('',(#195));
#106=EDGE_LOOP('',(#196,#197,#198,#199));
#107=EDGE_LOOP('',(#200,#201,#202,#203));
#108=EDGE_LOOP('',(#204));
#109=EDGE_LOOP('',(#205));
#110=EDGE_LOOP('',(#206));
#111=EDGE_LOOP('',(#207));
#112=EDGE_LOOP('',(#208,#209,#210,#211,#212,#213,#214,#215));
#113=EDGE_LOOP('',(#216,#217,#218,#219));
#114=EDGE_LOOP('',(#220,#221,#222,#223));
#115=EDGE_LOOP('',(#224,#225,#226,#227));
#116=EDGE_LOOP('',(#228,#229,#230,#231));
#117=EDGE_LOOP('',(#232,#233,#234,#235));
#118=EDGE_LOOP('',(#236,#237,#238,#239));
#119=EDGE_LOOP('',(#240));
#120=EDGE_LOOP('',(#241));
#121=EDGE_LOOP('',(#242));
#122=EDGE_LOOP('',(#243));
#123=EDGE_LOOP('',(#244,#245,#246,#247,#248,#249,#250,#251));
#124=CIRCLE('',#274,2.75);
#125=CIRCLE('',#275,2.75);
#126=CIRCLE('',#277,2.75);
#127=CIRCLE('',#278,2.75);
#128=CIRCLE('',#280,2.75);
#129=CIRCLE('',#281,2.75);
#130=CIRCLE('',#283,2.75);
#131=CIRCLE('',#284,2.75);
#132=VERTEX_POINT('',#367);
#133=VERTEX_POINT('',#369);
#134=VERTEX_POINT('',#372);
#135=VERTEX_POINT('',#374);
#136=VERTEX_POINT('',#377);
#137=VERTEX_POINT('',#379);
#138=VERTEX_POINT('',#382);
#139=VERTEX_POINT('',#384);
#140=VERTEX_POINT('',#387);
#141=VERTEX_POINT('',#388);
#142=VERTEX_POINT('',#390);
#143=VERTEX_POINT('',#392);
#144=VERTEX_POINT('',#396);
#145=VERTEX_POINT('',#398);
#146=VERTEX_POINT('',#402);
#147=VERTEX_POINT('',#404);
#148=VERTEX_POINT('',#406);
#149=VERTEX_POINT('',#408);
#150=VERTEX_POINT('',#410);
#151=VERTEX_POINT('',#414);
#152=VERTEX_POINT('',#416);
#153=VERTEX_POINT('',#420);
#154=VERTEX_POINT('',#424);
#155=VERTEX_POINT('',#428);
#156=EDGE_CURVE('',#132,#132,#124,.T.);
#157=EDGE_CURVE('',#133,#133,#125,.T.);
#158=EDGE_CURVE('',#134,#134,#126,.T.);
#159=EDGE_CURVE('',#135,#135,#127,.T.);
#160=EDGE_CURVE('',#136,#136,#128,.T.);
#161=EDGE_CURVE('',#137,#137,#129,.T.);
#162=EDGE_CURVE('',#138,#138,#130,.T.);
#163=EDGE_CURVE('',#139,#139,#131,.T.);
#164=EDGE_CURVE('',#140,#141,#14,.T.);
#165=EDGE_CURVE('',#141,#142,#15,.T.);
#166=EDGE_CURVE('',#142,#143,#16,.T.);
#167=EDGE_CURVE('',#143,#140,#17,.T.);
#168=EDGE_CURVE('',#144,#141,#18,.T.);
#169=EDGE_CURVE('',#145,#144,#19,.T.);
#170=EDGE_CURVE('',#145,#142,#20,.T.);
#171=EDGE_CURVE('',#140,#146,#21,.T.);
#172=EDGE_CURVE('',#147,#146,#22,.T.);
#173=EDGE_CURVE('',#147,#148,#23,.T.);
#174=EDGE_CURVE('',#149,#148,#24,.T.);
#175=EDGE_CURVE('',#149,#150,#25,.T.);
#176=EDGE_CURVE('',#144,#150,#26,.T.);
#177=EDGE_CURVE('',#146,#151,#27,.T.);
#178=EDGE_CURVE('',#151,#152,#28,.T.);
#179=EDGE_CURVE('',#152,#147,#29,.T.);
#180=EDGE_CURVE('',#152,#153,#30,.T.);
#181=EDGE_CURVE('',#148,#153,#31,.T.);
#182=EDGE_CURVE('',#153,#154,#32,.T.);
#183=EDGE_CURVE('',#154,#149,#33,.T.);
#184=EDGE_CURVE('',#150,#155,#34,.T.);
#185=EDGE_CURVE('',#155,#145,#35,.T.);
#186=EDGE_CURVE('',#154,#155,#36,.T.);
#187=EDGE_CURVE('',#143,#151,#37,.T.);
#188=ORIENTED_EDGE('',*,*,#156,.F.);
#189=ORIENTED_EDGE('',*,*,#157,.F.);
#190=ORIENTED_EDGE('',*,*,#158,.F.);
#191=ORIENTED_EDGE('',*,*,#159,.F.);
#192=ORIENTED_EDGE('',*,*,#160,.F.);
#193=ORIENTED_EDGE('',*,*,#161,.F.);
#194=ORIENTED_EDGE('',*,*,#162,.F.);
#195=ORIENTED_EDGE('',*,*,#163,.F.);
#196=ORIENTED_EDGE('',*,*,#164,.T.);
#197=ORIENTED_EDGE('',*,*,#165,.T.);
#198=ORIENTED_EDGE('',*,*,#166,.T.);
#199=ORIENTED_EDGE('',*,*,#167,.T.);
#200=ORIENTED_EDGE('',*,*,#165,.F.);
#201=ORIENTED_EDGE('',*,*,#168,.F.);
#202=ORIENTED_EDGE('',*,*,#169,.F.);
#203=ORIENTED_EDGE('',*,*,#170,.T.);
#204=ORIENTED_EDGE('',*,*,#157,.T.);
#205=ORIENTED_EDGE('',*,*,#159,.T.);
#206=ORIENTED_EDGE('',*,*,#161,.T.);
#207=ORIENTED_EDGE('',*,*,#163,.T.);
#208=ORIENTED_EDGE('',*,*,#164,.F.);
#209=ORIENTED_EDGE('',*,*,#171,.T.);
#210=ORIENTED_EDGE('',*,*,#172,.F.);
#211=ORIENTED_EDGE('',*,*,#173,.T.);
#212=ORIENTED_EDGE('',*,*,#174,.F.);
#213=ORIENTED_EDGE('',*,*,#175,.T.);
#214=ORIENTED_EDGE('',*,*,#176,.F.);
#215=ORIENTED_EDGE('',*,*,#168,.T.);
#216=ORIENTED_EDGE('',*,*,#172,.T.);
#217=ORIENTED_EDGE('',*,*,#177,.T.);
#218=ORIENTED_EDGE('',*,*,#178,.T.);
#219=ORIENTED_EDGE('',*,*,#179,.T.);
#220=ORIENTED_EDGE('',*,*,#179,.F.);
#221=ORIENTED_EDGE('',*,*,#180,.T.);
#222=ORIENTED_EDGE('',*,*,#181,.F.);
#223=ORIENTED_EDGE('',*,*,#173,.F.);
#224=ORIENTED_EDGE('',*,*,#174,.T.);
#225=ORIENTED_EDGE('',*,*,#181,.T.);
#226=ORIENTED_EDGE('',*,*,#182,.T.);
#227=ORIENTED_EDGE('',*,*,#183,.T.);
#228=ORIENTED_EDGE('',*,*,#176,.T.);
#229=ORIENTED_EDGE('',*,*,#184,.T.);
#230=ORIENTED_EDGE('',*,*,#185,.T.);
#231=ORIENTED_EDGE('',*,*,#169,.T.);
#232=ORIENTED_EDGE('',*,*,#183,.F.);
#233=ORIENTED_EDGE('',*,*,#186,.T.);
#234=ORIENTED_EDGE('',*,*,#184,.F.);
#235=ORIENTED_EDGE('',*,*,#175,.F.);
#236=ORIENTED_EDGE('',*,*,#167,.F.);
#237=ORIENTED_EDGE('',*,*,#187,.T.);
#238=ORIENTED_EDGE('',*,*,#177,.F.);
#239=ORIENTED_EDGE('',*,*,#171,.F.);
#240=ORIENTED_EDGE('',*,*,#156,.T.);
#241=ORIENTED_EDGE('',*,*,#158,.T.);
#242=ORIENTED_EDGE('',*,*,#160,.T.);
#243=ORIENTED_EDGE('',*,*,#162,.T.);
#244=ORIENTED_EDGE('',*,*,#166,.F.);
#245=ORIENTED_EDGE('',*,*,#170,.F.);
#246=ORIENTED_EDGE('',*,*,#185,.F.);
#247=ORIENTED_EDGE('',*,*,#186,.F.);
#248=ORIENTED_EDGE('',*,*,#182,.F.);
#249=ORIENTED_EDGE('',*,*,#180,.F.);
#250=ORIENTED_EDGE('',*,*,#178,.F.);
#251=ORIENTED_EDGE('',*,*,#187,.F.);
#252=CYLINDRICAL_SURFACE('',#273,2.75);
#253=CYLINDRICAL_SURFACE('',#276,2.75);
#254=CYLINDRICAL_SURFACE('',#279,2.75);
#255=CYLINDRICAL_SURFACE('',#282,2.75);
#256=ADVANCED_FACE('',(#86,#72),#252,.F.);
#257=ADVANCED_FACE('',(#87,#73),#253,.F.);
#258=ADVANCED_FACE('',(#88,#74),#254,.F.);
#259=ADVANCED_FACE('',(#89,#75),#255,.F.);
#260=ADVANCED_FACE('',(#90),#62,.T.);
#261=ADVANCED_FACE('',(#91),#63,.T.);
#262=ADVANCED_FACE('',(#76,#77,#78,#79,#80),#64,.T.);
#263=ADVANCED_FACE('',(#92),#65,.T.);
#264=ADVANCED_FACE('',(#93),#66,.T.);
#265=ADVANCED_FACE('',(#94),#67,.T.);
#266=ADVANCED_FACE('',(#95),#68,.T.);
#267=ADVANCED_FACE('',(#96),#69,.T.);
#268=ADVANCED_FACE('',(#97),#70,.T.);
#269=ADVANCED_FACE('',(#81,#82,#83,#84,#85),#71,.F.);
#270=CLOSED_SHELL('',(#256,#257,#258,#259,#260,#261,#262,#263,#264,#265,
#266,#267,#268,#269));
#271=MANIFOLD_SOLID_BREP('Volumenk\X\F6rper4',#270);
#272=AXIS2_PLACEMENT_3D('placement',#365,#295,#296);
#273=AXIS2_PLACEMENT_3D('',#366,#297,#298);
#274=AXIS2_PLACEMENT_3D('',#368,#299,#300);
#275=AXIS2_PLACEMENT_3D('',#370,#301,#302);
#276=AXIS2_PLACEMENT_3D('',#371,#303,#304);
#277=AXIS2_PLACEMENT_3D('',#373,#305,#306);
#278=AXIS2_PLACEMENT_3D('',#375,#307,#308);
#279=AXIS2_PLACEMENT_3D('',#376,#309,#310);
#280=AXIS2_PLACEMENT_3D('',#378,#311,#312);
#281=AXIS2_PLACEMENT_3D('',#380,#313,#314);
#282=AXIS2_PLACEMENT_3D('',#381,#315,#316);
#283=AXIS2_PLACEMENT_3D('',#383,#317,#318);
#284=AXIS2_PLACEMENT_3D('',#385,#319,#320);
#285=AXIS2_PLACEMENT_3D('',#386,#321,#322);
#286=AXIS2_PLACEMENT_3D('',#395,#327,#328);
#287=AXIS2_PLACEMENT_3D('',#401,#332,#333);
#288=AXIS2_PLACEMENT_3D('',#413,#340,#341);
#289=AXIS2_PLACEMENT_3D('',#419,#345,#346);
#290=AXIS2_PLACEMENT_3D('',#423,#349,#350);
#291=AXIS2_PLACEMENT_3D('',#427,#353,#354);
#292=AXIS2_PLACEMENT_3D('',#431,#357,#358);
#293=AXIS2_PLACEMENT_3D('',#433,#360,#361);
#294=AXIS2_PLACEMENT_3D('',#435,#363,#364);
#295=DIRECTION('axis',(0.,0.,1.));
#296=DIRECTION('refdir',(1.,0.,0.));
#297=DIRECTION('center_axis',(0.,0.,1.));
#298=DIRECTION('ref_axis',(1.,0.,0.));
#299=DIRECTION('center_axis',(0.,0.,1.));
#300=DIRECTION('ref_axis',(1.,0.,0.));
#301=DIRECTION('center_axis',(0.,0.,-1.));
#302=DIRECTION('ref_axis',(1.,0.,0.));
#303=DIRECTION('center_axis',(0.,0.,1.));
#304=DIRECTION('ref_axis',(1.,0.,0.));
#305=DIRECTION('center_axis',(0.,0.,1.));
#306=DIRECTION('ref_axis',(1.,0.,0.));
#307=DIRECTION('center_axis',(0.,0.,-1.));
#308=DIRECTION('ref_axis',(1.,0.,0.));
#309=DIRECTION('center_axis',(0.,0.,1.));
#310=DIRECTION('ref_axis',(1.,0.,0.));
#311=DIRECTION('center_axis',(0.,0.,1.));
#312=DIRECTION('ref_axis',(1.,0.,0.));
#313=DIRECTION('center_axis',(0.,0.,-1.));
#314=DIRECTION('ref_axis',(1.,0.,0.));
#315=DIRECTION('center_axis',(0.,0.,1.));
#316=DIRECTION('ref_axis',(1.,0.,0.));
#317=DIRECTION('center_axis',(0.,0.,1.));
#318=DIRECTION('ref_axis',(1.,0.,0.));
#319=DIRECTION('center_axis',(0.,0.,-1.));
#320=DIRECTION('ref_axis',(1.,0.,0.));
#321=DIRECTION('center_axis',(0.707106781186547,-0.707106781186548,0.));
#322=DIRECTION('ref_axis',(0.,0.,-1.));
#323=DIRECTION('',(-0.707106781186548,-0.707106781186547,0.));
#324=DIRECTION('',(0.,0.,-1.));
#325=DIRECTION('',(0.707106781186548,0.707106781186547,0.));
#326=DIRECTION('',(0.,0.,1.));
#327=DIRECTION('center_axis',(5.55111512312578E-017,-1.,0.));
#328=DIRECTION('ref_axis',(1.,0.,0.));
#329=DIRECTION('',(1.,5.55111512312578E-017,0.));
#330=DIRECTION('',(0.,0.,1.));
#331=DIRECTION('',(1.,5.55111512312578E-017,0.));
#332=DIRECTION('center_axis',(0.,0.,1.));
#333=DIRECTION('ref_axis',(1.,0.,0.));
#334=DIRECTION('',(0.,1.,0.));
#335=DIRECTION('',(0.707106781186548,-0.707106781186547,0.));
#336=DIRECTION('',(-1.,0.,0.));
#337=DIRECTION('',(0.707106781186548,0.707106781186547,0.));
#338=DIRECTION('',(0.,-1.,0.));
#339=DIRECTION('',(-0.707106781186548,0.707106781186547,0.));
#340=DIRECTION('center_axis',(0.707106781186547,0.707106781186548,0.));
#341=DIRECTION('ref_axis',(0.,0.,-1.));
#342=DIRECTION('',(0.,0.,-1.));
#343=DIRECTION('',(-0.707106781186548,0.707106781186547,0.));
#344=DIRECTION('',(0.,0.,1.));
#345=DIRECTION('center_axis',(0.,1.,0.));
#346=DIRECTION('ref_axis',(-1.,0.,0.));
#347=DIRECTION('',(-1.,0.,0.));
#348=DIRECTION('',(0.,0.,-1.));
#349=DIRECTION('center_axis',(-0.707106781186547,0.707106781186548,0.));
#350=DIRECTION('ref_axis',(0.,0.,1.));
#351=DIRECTION('',(-0.707106781186548,-0.707106781186547,0.));
#352=DIRECTION('',(0.,0.,1.));
#353=DIRECTION('center_axis',(-0.707106781186547,-0.707106781186548,0.));
#354=DIRECTION('ref_axis',(0.,0.,1.));
#355=DIRECTION('',(0.,0.,-1.));
#356=DIRECTION('',(0.707106781186548,-0.707106781186547,0.));
#357=DIRECTION('center_axis',(-1.,0.,0.));
#358=DIRECTION('ref_axis',(0.,-1.,0.));
#359=DIRECTION('',(0.,-1.,0.));
#360=DIRECTION('center_axis',(1.,0.,0.));
#361=DIRECTION('ref_axis',(0.,1.,0.));
#362=DIRECTION('',(0.,1.,0.));
#363=DIRECTION('center_axis',(0.,0.,1.));
#364=DIRECTION('ref_axis',(1.,0.,0.));
#365=CARTESIAN_POINT('',(0.,0.,0.));
#366=CARTESIAN_POINT('Origin',(-10.,0.,-79.516664983505));
#367=CARTESIAN_POINT('',(-12.75,-3.36777869765522E-016,0.));
#368=CARTESIAN_POINT('Origin',(-10.,0.,0.));
#369=CARTESIAN_POINT('',(-7.25,0.,3.));
#370=CARTESIAN_POINT('Origin',(-10.,0.,3.));
#371=CARTESIAN_POINT('Origin',(30.,0.,-79.516664983505));
#372=CARTESIAN_POINT('',(27.25,-3.36777869765522E-016,0.));
#373=CARTESIAN_POINT('Origin',(30.,0.,0.));
#374=CARTESIAN_POINT('',(32.75,0.,3.));
#375=CARTESIAN_POINT('Origin',(30.,0.,3.));
#376=CARTESIAN_POINT('Origin',(-30.,-1.75298372309235E-015,-79.516664983505));
#377=CARTESIAN_POINT('',(-32.75,-2.08976159285788E-015,0.));
#378=CARTESIAN_POINT('Origin',(-30.,-1.75298372309235E-015,0.));
#379=CARTESIAN_POINT('',(-27.25,-1.75298372309235E-015,3.));
#380=CARTESIAN_POINT('Origin',(-30.,-1.75298372309235E-015,3.));
#381=CARTESIAN_POINT('Origin',(10.,0.,-79.516664983505));
#382=CARTESIAN_POINT('',(7.25,-3.36777869765522E-016,0.));
#383=CARTESIAN_POINT('Origin',(10.,0.,0.));
#384=CARTESIAN_POINT('',(12.75,0.,3.));
#385=CARTESIAN_POINT('Origin',(10.,0.,3.));
#386=CARTESIAN_POINT('Origin',(39.,-9.,0.));
#387=CARTESIAN_POINT('',(40.,-8.,3.));
#388=CARTESIAN_POINT('',(38.,-10.,3.));
#389=CARTESIAN_POINT('',(31.5,-16.5,3.));
#390=CARTESIAN_POINT('',(38.,-10.,0.));
#391=CARTESIAN_POINT('',(38.,-10.,0.));
#392=CARTESIAN_POINT('',(40.,-8.,0.));
#393=CARTESIAN_POINT('',(31.5,-16.5,0.));
#394=CARTESIAN_POINT('',(40.,-8.,0.));
#395=CARTESIAN_POINT('Origin',(-40.,-10.,0.));
#396=CARTESIAN_POINT('',(-38.,-10.,3.));
#397=CARTESIAN_POINT('',(-40.,-10.,3.));
#398=CARTESIAN_POINT('',(-38.,-10.,0.));
#399=CARTESIAN_POINT('',(-38.,-10.,0.));
#400=CARTESIAN_POINT('',(-40.,-10.,0.));
#401=CARTESIAN_POINT('Origin',(0.,2.22044604925031E-015,3.));
#402=CARTESIAN_POINT('',(40.,8.,3.));
#403=CARTESIAN_POINT('',(40.,-10.,3.));
#404=CARTESIAN_POINT('',(38.,10.,3.));
#405=CARTESIAN_POINT('',(31.5,16.5,3.));
#406=CARTESIAN_POINT('',(-38.,10.,3.));
#407=CARTESIAN_POINT('',(40.,10.,3.));
#408=CARTESIAN_POINT('',(-40.,8.,3.));
#409=CARTESIAN_POINT('',(-31.5,16.5,3.));
#410=CARTESIAN_POINT('',(-40.,-8.,3.));
#411=CARTESIAN_POINT('',(-40.,10.,3.));
#412=CARTESIAN_POINT('',(-31.5,-16.5,3.));
#413=CARTESIAN_POINT('Origin',(39.,9.,0.));
#414=CARTESIAN_POINT('',(40.,8.,0.));
#415=CARTESIAN_POINT('',(40.,8.,0.));
#416=CARTESIAN_POINT('',(38.,10.,0.));
#417=CARTESIAN_POINT('',(31.5,16.5,0.));
#418=CARTESIAN_POINT('',(38.,10.,0.));
#419=CARTESIAN_POINT('Origin',(40.,10.,0.));
#420=CARTESIAN_POINT('',(-38.,10.,0.));
#421=CARTESIAN_POINT('',(40.,10.,0.));
#422=CARTESIAN_POINT('',(-38.,10.,0.));
#423=CARTESIAN_POINT('Origin',(-39.,9.,0.));
#424=CARTESIAN_POINT('',(-40.,8.,0.));
#425=CARTESIAN_POINT('',(-31.5,16.5,0.));
#426=CARTESIAN_POINT('',(-40.,8.,0.));
#427=CARTESIAN_POINT('Origin',(-39.,-9.,0.));
#428=CARTESIAN_POINT('',(-40.,-8.,0.));
#429=CARTESIAN_POINT('',(-40.,-8.,0.));
#430=CARTESIAN_POINT('',(-31.5,-16.5,0.));
#431=CARTESIAN_POINT('Origin',(-40.,10.,0.));
#432=CARTESIAN_POINT('',(-40.,10.,0.));
#433=CARTESIAN_POINT('Origin',(40.,-10.,0.));
#434=CARTESIAN_POINT('',(40.,-10.,0.));
#435=CARTESIAN_POINT('Origin',(-1.33226762955019E-015,1.33226762955019E-015,
0.));
#436=UNCERTAINTY_MEASURE_WITH_UNIT(LENGTH_MEASURE(0.01),#440,
'DISTANCE_ACCURACY_VALUE',
'Maximum model space distance between geometric entities at asserted c
onnectivities');
#437=UNCERTAINTY_MEASURE_WITH_UNIT(LENGTH_MEASURE(1.E-006),#440,
'DISTANCE_ACCURACY_VALUE',
'Maximum model space distance between geometric entities at asserted c
onnectivities');
#438=(
GEOMETRIC_REPRESENTATION_CONTEXT(3)
GLOBAL_UNCERTAINTY_ASSIGNED_CONTEXT((#436))
GLOBAL_UNIT_ASSIGNED_CONTEXT((#440,#443,#441))
REPRESENTATION_CONTEXT('','3D')
);
#439=(
GEOMETRIC_REPRESENTATION_CONTEXT(3)
GLOBAL_UNCERTAINTY_ASSIGNED_CONTEXT((#437))
GLOBAL_UNIT_ASSIGNED_CONTEXT((#440,#443,#441))
REPRESENTATION_CONTEXT('','3D')
);
#440=(
LENGTH_UNIT()
NAMED_UNIT(*)
SI_UNIT(.MILLI.,.METRE.)
);
#441=(
NAMED_UNIT(*)
SI_UNIT($,.STERADIAN.)
SOLID_ANGLE_UNIT()
);
#442=DIMENSIONAL_EXPONENTS(0.,0.,0.,0.,0.,0.,0.);
#443=(
CONVERSION_BASED_UNIT('degree',#445)
NAMED_UNIT(#442)
PLANE_ANGLE_UNIT()
);
#444=(
NAMED_UNIT(*)
PLANE_ANGLE_UNIT()
SI_UNIT($,.RADIAN.)
);
#445=PLANE_ANGLE_MEASURE_WITH_UNIT(PLANE_ANGLE_MEASURE(0.01745329252),#444);
#446=SHAPE_DEFINITION_REPRESENTATION(#447,#448);
#447=PRODUCT_DEFINITION_SHAPE('',$,#450);
#448=SHAPE_REPRESENTATION('',(#272),#438);
#449=DESIGN_CONTEXT('part definition',#454,'design');
#450=PRODUCT_DEFINITION('10525_KriTec_Lasche_5_80x20x3_schwarz',
'10525_KriTec_Lasche_5_80x20x3_schwarz',#451,#449);
#451=PRODUCT_DEFINITION_FORMATION('',$,#456);
#452=PRODUCT_RELATED_PRODUCT_CATEGORY(
'10525_KriTec_Lasche_5_80x20x3_schwarz',
'10525_KriTec_Lasche_5_80x20x3_schwarz',(#456));
#453=APPLICATION_PROTOCOL_DEFINITION('international standard',
'ap203_configuration_controlled_3d_design_of_mechanical_parts_and_asse
mblies_mim_lf',2004,#454);
#454=APPLICATION_CONTEXT(
'Configuration Controlled 3D Design of Mechanical Parts and Assemblies');
#455=MECHANICAL_CONTEXT('part definition',#454,'mechanical');
#456=PRODUCT('10525_KriTec_Lasche_5_80x20x3_schwarz',
'10525_KriTec_Lasche_5_80x20x3_schwarz',$,(#455));
#457=PRESENTATION_STYLE_ASSIGNMENT((#458));
#458=SURFACE_STYLE_USAGE(.BOTH.,#459);
#459=SURFACE_SIDE_STYLE($,(#460));
#460=SURFACE_STYLE_FILL_AREA(#461);
#461=FILL_AREA_STYLE($,(#462));
#462=FILL_AREA_STYLE_COLOUR($,#463);
#463=COLOUR_RGB('',0.0196078431372549,0.0196078431372549,0.0196078431372549);
ENDSEC;
END-ISO-10303-21;
