ISO-10303-21;
HEADER;
/* Generated by software containing ST-Developer
 * from STEP Tools, Inc. (www.steptools.com) 
 */

FILE_DESCRIPTION(
/* description */ (''),
/* implementation_level */ '2;1');

FILE_NAME(
/* name */ 
'S:\\Bilder_neu\\10523_KriTec_Lasche_5_60x20x3_schwarz\\Inventordateie
n\\10523_KriTec_Lasche_5_60x20x3_schwarz.stp',
/* time_stamp */ '2015-10-30T09:10:28+01:00',
/* author */ ('kostic'),
/* organization */ (''),
/* preprocessor_version */ 'ST-DEVELOPER v15.2',
/* originating_system */ 'Autodesk Inventor 2014',
/* authorisation */ '');

FILE_SCHEMA (('CONFIG_CONTROL_DESIGN'));
ENDSEC;

DATA;
#10=MECHANICAL_DESIGN_GEOMETRIC_PRESENTATION_REPRESENTATION('',(#13),#405);
#11=SHAPE_REPRESENTATION_RELATIONSHIP('SRR','None',#414,#12);
#12=ADVANCED_BREP_SHAPE_REPRESENTATION($,(#251),#404);
#13=STYLED_ITEM('',(#423),#251);
#14=LINE('',#355,#38);
#15=LINE('',#357,#39);
#16=LINE('',#359,#40);
#17=LINE('',#360,#41);
#18=LINE('',#363,#42);
#19=LINE('',#365,#43);
#20=LINE('',#366,#44);
#21=LINE('',#369,#45);
#22=LINE('',#371,#46);
#23=LINE('',#373,#47);
#24=LINE('',#375,#48);
#25=LINE('',#377,#49);
#26=LINE('',#378,#50);
#27=LINE('',#381,#51);
#28=LINE('',#383,#52);
#29=LINE('',#384,#53);
#30=LINE('',#387,#54);
#31=LINE('',#388,#55);
#32=LINE('',#391,#56);
#33=LINE('',#392,#57);
#34=LINE('',#395,#58);
#35=LINE('',#396,#59);
#36=LINE('',#398,#60);
#37=LINE('',#400,#61);
#38=VECTOR('',#294,2.82842712474619);
#39=VECTOR('',#295,3.);
#40=VECTOR('',#296,2.82842712474619);
#41=VECTOR('',#297,3.);
#42=VECTOR('',#300,56.);
#43=VECTOR('',#301,3.);
#44=VECTOR('',#302,56.);
#45=VECTOR('',#305,16.);
#46=VECTOR('',#306,2.82842712474619);
#47=VECTOR('',#307,56.);
#48=VECTOR('',#308,2.82842712474619);
#49=VECTOR('',#309,16.);
#50=VECTOR('',#310,2.82842712474619);
#51=VECTOR('',#313,3.);
#52=VECTOR('',#314,2.82842712474619);
#53=VECTOR('',#315,3.);
#54=VECTOR('',#318,56.);
#55=VECTOR('',#319,3.);
#56=VECTOR('',#322,2.82842712474619);
#57=VECTOR('',#323,3.);
#58=VECTOR('',#326,3.);
#59=VECTOR('',#327,2.82842712474619);
#60=VECTOR('',#330,16.);
#61=VECTOR('',#333,16.);
#62=PLANE('',#262);
#63=PLANE('',#263);
#64=PLANE('',#264);
#65=PLANE('',#265);
#66=PLANE('',#266);
#67=PLANE('',#267);
#68=PLANE('',#268);
#69=PLANE('',#269);
#70=PLANE('',#270);
#71=PLANE('',#271);
#72=FACE_BOUND('',#95,.T.);
#73=FACE_BOUND('',#97,.T.);
#74=FACE_BOUND('',#99,.T.);
#75=FACE_BOUND('',#102,.T.);
#76=FACE_BOUND('',#103,.T.);
#77=FACE_BOUND('',#104,.T.);
#78=FACE_BOUND('',#105,.T.);
#79=FACE_BOUND('',#112,.T.);
#80=FACE_BOUND('',#113,.T.);
#81=FACE_BOUND('',#114,.T.);
#82=FACE_BOUND('',#115,.T.);
#83=FACE_OUTER_BOUND('',#94,.T.);
#84=FACE_OUTER_BOUND('',#96,.T.);
#85=FACE_OUTER_BOUND('',#98,.T.);
#86=FACE_OUTER_BOUND('',#100,.T.);
#87=FACE_OUTER_BOUND('',#101,.T.);
#88=FACE_OUTER_BOUND('',#106,.T.);
#89=FACE_OUTER_BOUND('',#107,.T.);
#90=FACE_OUTER_BOUND('',#108,.T.);
#91=FACE_OUTER_BOUND('',#109,.T.);
#92=FACE_OUTER_BOUND('',#110,.T.);
#93=FACE_OUTER_BOUND('',#111,.T.);
#94=EDGE_LOOP('',(#174));
#95=EDGE_LOOP('',(#175));
#96=EDGE_LOOP('',(#176));
#97=EDGE_LOOP('',(#177));
#98=EDGE_LOOP('',(#178));
#99=EDGE_LOOP('',(#179));
#100=EDGE_LOOP('',(#180,#181,#182,#183));
#101=EDGE_LOOP('',(#184,#185,#186,#187));
#102=EDGE_LOOP('',(#188));
#103=EDGE_LOOP('',(#189));
#104=EDGE_LOOP('',(#190));
#105=EDGE_LOOP('',(#191,#192,#193,#194,#195,#196,#197,#198));
#106=EDGE_LOOP('',(#199,#200,#201,#202));
#107=EDGE_LOOP('',(#203,#204,#205,#206));
#108=EDGE_LOOP('',(#207,#208,#209,#210));
#109=EDGE_LOOP('',(#211,#212,#213,#214));
#110=EDGE_LOOP('',(#215,#216,#217,#218));
#111=EDGE_LOOP('',(#219,#220,#221,#222));
#112=EDGE_LOOP('',(#223));
#113=EDGE_LOOP('',(#224));
#114=EDGE_LOOP('',(#225));
#115=EDGE_LOOP('',(#226,#227,#228,#229,#230,#231,#232,#233));
#116=CIRCLE('',#254,2.75);
#117=CIRCLE('',#255,2.75);
#118=CIRCLE('',#257,2.75);
#119=CIRCLE('',#258,2.75);
#120=CIRCLE('',#260,2.75);
#121=CIRCLE('',#261,2.75);
#122=VERTEX_POINT('',#338);
#123=VERTEX_POINT('',#340);
#124=VERTEX_POINT('',#343);
#125=VERTEX_POINT('',#345);
#126=VERTEX_POINT('',#348);
#127=VERTEX_POINT('',#350);
#128=VERTEX_POINT('',#353);
#129=VERTEX_POINT('',#354);
#130=VERTEX_POINT('',#356);
#131=VERTEX_POINT('',#358);
#132=VERTEX_POINT('',#362);
#133=VERTEX_POINT('',#364);
#134=VERTEX_POINT('',#368);
#135=VERTEX_POINT('',#370);
#136=VERTEX_POINT('',#372);
#137=VERTEX_POINT('',#374);
#138=VERTEX_POINT('',#376);
#139=VERTEX_POINT('',#380);
#140=VERTEX_POINT('',#382);
#141=VERTEX_POINT('',#386);
#142=VERTEX_POINT('',#390);
#143=VERTEX_POINT('',#394);
#144=EDGE_CURVE('',#122,#122,#116,.T.);
#145=EDGE_CURVE('',#123,#123,#117,.T.);
#146=EDGE_CURVE('',#124,#124,#118,.T.);
#147=EDGE_CURVE('',#125,#125,#119,.T.);
#148=EDGE_CURVE('',#126,#126,#120,.T.);
#149=EDGE_CURVE('',#127,#127,#121,.T.);
#150=EDGE_CURVE('',#128,#129,#14,.T.);
#151=EDGE_CURVE('',#129,#130,#15,.T.);
#152=EDGE_CURVE('',#130,#131,#16,.T.);
#153=EDGE_CURVE('',#131,#128,#17,.T.);
#154=EDGE_CURVE('',#132,#129,#18,.T.);
#155=EDGE_CURVE('',#133,#132,#19,.T.);
#156=EDGE_CURVE('',#133,#130,#20,.T.);
#157=EDGE_CURVE('',#128,#134,#21,.T.);
#158=EDGE_CURVE('',#135,#134,#22,.T.);
#159=EDGE_CURVE('',#135,#136,#23,.T.);
#160=EDGE_CURVE('',#137,#136,#24,.T.);
#161=EDGE_CURVE('',#137,#138,#25,.T.);
#162=EDGE_CURVE('',#132,#138,#26,.T.);
#163=EDGE_CURVE('',#134,#139,#27,.T.);
#164=EDGE_CURVE('',#139,#140,#28,.T.);
#165=EDGE_CURVE('',#140,#135,#29,.T.);
#166=EDGE_CURVE('',#140,#141,#30,.T.);
#167=EDGE_CURVE('',#136,#141,#31,.T.);
#168=EDGE_CURVE('',#141,#142,#32,.T.);
#169=EDGE_CURVE('',#142,#137,#33,.T.);
#170=EDGE_CURVE('',#138,#143,#34,.T.);
#171=EDGE_CURVE('',#143,#133,#35,.T.);
#172=EDGE_CURVE('',#142,#143,#36,.T.);
#173=EDGE_CURVE('',#131,#139,#37,.T.);
#174=ORIENTED_EDGE('',*,*,#144,.F.);
#175=ORIENTED_EDGE('',*,*,#145,.F.);
#176=ORIENTED_EDGE('',*,*,#146,.F.);
#177=ORIENTED_EDGE('',*,*,#147,.F.);
#178=ORIENTED_EDGE('',*,*,#148,.F.);
#179=ORIENTED_EDGE('',*,*,#149,.F.);
#180=ORIENTED_EDGE('',*,*,#150,.T.);
#181=ORIENTED_EDGE('',*,*,#151,.T.);
#182=ORIENTED_EDGE('',*,*,#152,.T.);
#183=ORIENTED_EDGE('',*,*,#153,.T.);
#184=ORIENTED_EDGE('',*,*,#151,.F.);
#185=ORIENTED_EDGE('',*,*,#154,.F.);
#186=ORIENTED_EDGE('',*,*,#155,.F.);
#187=ORIENTED_EDGE('',*,*,#156,.T.);
#188=ORIENTED_EDGE('',*,*,#145,.T.);
#189=ORIENTED_EDGE('',*,*,#147,.T.);
#190=ORIENTED_EDGE('',*,*,#149,.T.);
#191=ORIENTED_EDGE('',*,*,#150,.F.);
#192=ORIENTED_EDGE('',*,*,#157,.T.);
#193=ORIENTED_EDGE('',*,*,#158,.F.);
#194=ORIENTED_EDGE('',*,*,#159,.T.);
#195=ORIENTED_EDGE('',*,*,#160,.F.);
#196=ORIENTED_EDGE('',*,*,#161,.T.);
#197=ORIENTED_EDGE('',*,*,#162,.F.);
#198=ORIENTED_EDGE('',*,*,#154,.T.);
#199=ORIENTED_EDGE('',*,*,#158,.T.);
#200=ORIENTED_EDGE('',*,*,#163,.T.);
#201=ORIENTED_EDGE('',*,*,#164,.T.);
#202=ORIENTED_EDGE('',*,*,#165,.T.);
#203=ORIENTED_EDGE('',*,*,#165,.F.);
#204=ORIENTED_EDGE('',*,*,#166,.T.);
#205=ORIENTED_EDGE('',*,*,#167,.F.);
#206=ORIENTED_EDGE('',*,*,#159,.F.);
#207=ORIENTED_EDGE('',*,*,#160,.T.);
#208=ORIENTED_EDGE('',*,*,#167,.T.);
#209=ORIENTED_EDGE('',*,*,#168,.T.);
#210=ORIENTED_EDGE('',*,*,#169,.T.);
#211=ORIENTED_EDGE('',*,*,#162,.T.);
#212=ORIENTED_EDGE('',*,*,#170,.T.);
#213=ORIENTED_EDGE('',*,*,#171,.T.);
#214=ORIENTED_EDGE('',*,*,#155,.T.);
#215=ORIENTED_EDGE('',*,*,#169,.F.);
#216=ORIENTED_EDGE('',*,*,#172,.T.);
#217=ORIENTED_EDGE('',*,*,#170,.F.);
#218=ORIENTED_EDGE('',*,*,#161,.F.);
#219=ORIENTED_EDGE('',*,*,#153,.F.);
#220=ORIENTED_EDGE('',*,*,#173,.T.);
#221=ORIENTED_EDGE('',*,*,#163,.F.);
#222=ORIENTED_EDGE('',*,*,#157,.F.);
#223=ORIENTED_EDGE('',*,*,#144,.T.);
#224=ORIENTED_EDGE('',*,*,#146,.T.);
#225=ORIENTED_EDGE('',*,*,#148,.T.);
#226=ORIENTED_EDGE('',*,*,#152,.F.);
#227=ORIENTED_EDGE('',*,*,#156,.F.);
#228=ORIENTED_EDGE('',*,*,#171,.F.);
#229=ORIENTED_EDGE('',*,*,#172,.F.);
#230=ORIENTED_EDGE('',*,*,#168,.F.);
#231=ORIENTED_EDGE('',*,*,#166,.F.);
#232=ORIENTED_EDGE('',*,*,#164,.F.);
#233=ORIENTED_EDGE('',*,*,#173,.F.);
#234=CYLINDRICAL_SURFACE('',#253,2.75);
#235=CYLINDRICAL_SURFACE('',#256,2.75);
#236=CYLINDRICAL_SURFACE('',#259,2.75);
#237=ADVANCED_FACE('',(#83,#72),#234,.F.);
#238=ADVANCED_FACE('',(#84,#73),#235,.F.);
#239=ADVANCED_FACE('',(#85,#74),#236,.F.);
#240=ADVANCED_FACE('',(#86),#62,.T.);
#241=ADVANCED_FACE('',(#87),#63,.T.);
#242=ADVANCED_FACE('',(#75,#76,#77,#78),#64,.T.);
#243=ADVANCED_FACE('',(#88),#65,.T.);
#244=ADVANCED_FACE('',(#89),#66,.T.);
#245=ADVANCED_FACE('',(#90),#67,.T.);
#246=ADVANCED_FACE('',(#91),#68,.T.);
#247=ADVANCED_FACE('',(#92),#69,.T.);
#248=ADVANCED_FACE('',(#93),#70,.T.);
#249=ADVANCED_FACE('',(#79,#80,#81,#82),#71,.F.);
#250=CLOSED_SHELL('',(#237,#238,#239,#240,#241,#242,#243,#244,#245,#246,
#247,#248,#249));
#251=MANIFOLD_SOLID_BREP('Volumenk\X\F6rper4',#250);
#252=AXIS2_PLACEMENT_3D('placement',#336,#272,#273);
#253=AXIS2_PLACEMENT_3D('',#337,#274,#275);
#254=AXIS2_PLACEMENT_3D('',#339,#276,#277);
#255=AXIS2_PLACEMENT_3D('',#341,#278,#279);
#256=AXIS2_PLACEMENT_3D('',#342,#280,#281);
#257=AXIS2_PLACEMENT_3D('',#344,#282,#283);
#258=AXIS2_PLACEMENT_3D('',#346,#284,#285);
#259=AXIS2_PLACEMENT_3D('',#347,#286,#287);
#260=AXIS2_PLACEMENT_3D('',#349,#288,#289);
#261=AXIS2_PLACEMENT_3D('',#351,#290,#291);
#262=AXIS2_PLACEMENT_3D('',#352,#292,#293);
#263=AXIS2_PLACEMENT_3D('',#361,#298,#299);
#264=AXIS2_PLACEMENT_3D('',#367,#303,#304);
#265=AXIS2_PLACEMENT_3D('',#379,#311,#312);
#266=AXIS2_PLACEMENT_3D('',#385,#316,#317);
#267=AXIS2_PLACEMENT_3D('',#389,#320,#321);
#268=AXIS2_PLACEMENT_3D('',#393,#324,#325);
#269=AXIS2_PLACEMENT_3D('',#397,#328,#329);
#270=AXIS2_PLACEMENT_3D('',#399,#331,#332);
#271=AXIS2_PLACEMENT_3D('',#401,#334,#335);
#272=DIRECTION('axis',(0.,0.,1.));
#273=DIRECTION('refdir',(1.,0.,0.));
#274=DIRECTION('center_axis',(0.,0.,1.));
#275=DIRECTION('ref_axis',(1.,0.,0.));
#276=DIRECTION('center_axis',(0.,0.,1.));
#277=DIRECTION('ref_axis',(1.,0.,0.));
#278=DIRECTION('center_axis',(0.,0.,-1.));
#279=DIRECTION('ref_axis',(1.,0.,0.));
#280=DIRECTION('center_axis',(0.,0.,1.));
#281=DIRECTION('ref_axis',(1.,0.,0.));
#282=DIRECTION('center_axis',(0.,0.,1.));
#283=DIRECTION('ref_axis',(1.,0.,0.));
#284=DIRECTION('center_axis',(0.,0.,-1.));
#285=DIRECTION('ref_axis',(1.,0.,0.));
#286=DIRECTION('center_axis',(0.,0.,1.));
#287=DIRECTION('ref_axis',(1.,0.,0.));
#288=DIRECTION('center_axis',(0.,0.,1.));
#289=DIRECTION('ref_axis',(1.,0.,0.));
#290=DIRECTION('center_axis',(0.,0.,-1.));
#291=DIRECTION('ref_axis',(1.,0.,0.));
#292=DIRECTION('center_axis',(0.707106781186547,-0.707106781186548,0.));
#293=DIRECTION('ref_axis',(0.,0.,-1.));
#294=DIRECTION('',(-0.707106781186548,-0.707106781186547,0.));
#295=DIRECTION('',(0.,0.,-1.));
#296=DIRECTION('',(0.707106781186548,0.707106781186547,0.));
#297=DIRECTION('',(0.,0.,1.));
#298=DIRECTION('center_axis',(7.40148683083438E-017,-1.,0.));
#299=DIRECTION('ref_axis',(1.,0.,0.));
#300=DIRECTION('',(1.,7.40148683083438E-017,0.));
#301=DIRECTION('',(0.,0.,1.));
#302=DIRECTION('',(1.,7.40148683083438E-017,0.));
#303=DIRECTION('center_axis',(0.,0.,1.));
#304=DIRECTION('ref_axis',(1.,0.,0.));
#305=DIRECTION('',(0.,1.,0.));
#306=DIRECTION('',(0.707106781186548,-0.707106781186547,0.));
#307=DIRECTION('',(-1.,0.,0.));
#308=DIRECTION('',(0.707106781186548,0.707106781186547,0.));
#309=DIRECTION('',(0.,-1.,0.));
#310=DIRECTION('',(-0.707106781186548,0.707106781186547,0.));
#311=DIRECTION('center_axis',(0.707106781186547,0.707106781186548,0.));
#312=DIRECTION('ref_axis',(0.,0.,-1.));
#313=DIRECTION('',(0.,0.,-1.));
#314=DIRECTION('',(-0.707106781186548,0.707106781186547,0.));
#315=DIRECTION('',(0.,0.,1.));
#316=DIRECTION('center_axis',(0.,1.,0.));
#317=DIRECTION('ref_axis',(-1.,0.,0.));
#318=DIRECTION('',(-1.,0.,0.));
#319=DIRECTION('',(0.,0.,-1.));
#320=DIRECTION('center_axis',(-0.707106781186547,0.707106781186548,0.));
#321=DIRECTION('ref_axis',(0.,0.,1.));
#322=DIRECTION('',(-0.707106781186548,-0.707106781186547,0.));
#323=DIRECTION('',(0.,0.,1.));
#324=DIRECTION('center_axis',(-0.707106781186547,-0.707106781186548,0.));
#325=DIRECTION('ref_axis',(0.,0.,1.));
#326=DIRECTION('',(0.,0.,-1.));
#327=DIRECTION('',(0.707106781186548,-0.707106781186547,0.));
#328=DIRECTION('center_axis',(-1.,0.,0.));
#329=DIRECTION('ref_axis',(0.,-1.,0.));
#330=DIRECTION('',(0.,-1.,0.));
#331=DIRECTION('center_axis',(1.,0.,0.));
#332=DIRECTION('ref_axis',(0.,1.,0.));
#333=DIRECTION('',(0.,1.,0.));
#334=DIRECTION('center_axis',(0.,0.,1.));
#335=DIRECTION('ref_axis',(1.,0.,0.));
#336=CARTESIAN_POINT('',(0.,0.,0.));
#337=CARTESIAN_POINT('Origin',(20.,0.,-60.3166644731069));
#338=CARTESIAN_POINT('',(17.25,-3.36777869765522E-016,0.));
#339=CARTESIAN_POINT('Origin',(20.,0.,0.));
#340=CARTESIAN_POINT('',(22.75,0.,3.));
#341=CARTESIAN_POINT('Origin',(20.,0.,3.));
#342=CARTESIAN_POINT('Origin',(0.,0.,-60.3166644731069));
#343=CARTESIAN_POINT('',(-2.75,-3.36777869765522E-016,0.));
#344=CARTESIAN_POINT('Origin',(0.,0.,0.));
#345=CARTESIAN_POINT('',(2.75,0.,3.));
#346=CARTESIAN_POINT('Origin',(0.,0.,3.));
#347=CARTESIAN_POINT('Origin',(-20.,0.,-60.3166644731069));
#348=CARTESIAN_POINT('',(-22.75,-3.36777869765522E-016,0.));
#349=CARTESIAN_POINT('Origin',(-20.,0.,0.));
#350=CARTESIAN_POINT('',(-17.25,0.,3.));
#351=CARTESIAN_POINT('Origin',(-20.,0.,3.));
#352=CARTESIAN_POINT('Origin',(29.,-9.,0.));
#353=CARTESIAN_POINT('',(30.,-8.,3.));
#354=CARTESIAN_POINT('',(28.,-10.,3.));
#355=CARTESIAN_POINT('',(24.,-14.,3.));
#356=CARTESIAN_POINT('',(28.,-10.,0.));
#357=CARTESIAN_POINT('',(28.,-10.,0.));
#358=CARTESIAN_POINT('',(30.,-8.,0.));
#359=CARTESIAN_POINT('',(24.,-14.,0.));
#360=CARTESIAN_POINT('',(30.,-8.,0.));
#361=CARTESIAN_POINT('Origin',(-30.,-10.,0.));
#362=CARTESIAN_POINT('',(-28.,-10.,3.));
#363=CARTESIAN_POINT('',(-30.,-10.,3.));
#364=CARTESIAN_POINT('',(-28.,-10.,0.));
#365=CARTESIAN_POINT('',(-28.,-10.,0.));
#366=CARTESIAN_POINT('',(-30.,-10.,0.));
#367=CARTESIAN_POINT('Origin',(0.,2.22044604925031E-015,3.));
#368=CARTESIAN_POINT('',(30.,8.,3.));
#369=CARTESIAN_POINT('',(30.,-10.,3.));
#370=CARTESIAN_POINT('',(28.,10.,3.));
#371=CARTESIAN_POINT('',(24.,14.,3.));
#372=CARTESIAN_POINT('',(-28.,10.,3.));
#373=CARTESIAN_POINT('',(30.,10.,3.));
#374=CARTESIAN_POINT('',(-30.,8.,3.));
#375=CARTESIAN_POINT('',(-24.,14.,3.));
#376=CARTESIAN_POINT('',(-30.,-8.,3.));
#377=CARTESIAN_POINT('',(-30.,10.,3.));
#378=CARTESIAN_POINT('',(-24.,-14.,3.));
#379=CARTESIAN_POINT('Origin',(29.,9.,0.));
#380=CARTESIAN_POINT('',(30.,8.,0.));
#381=CARTESIAN_POINT('',(30.,8.,0.));
#382=CARTESIAN_POINT('',(28.,10.,0.));
#383=CARTESIAN_POINT('',(24.,14.,0.));
#384=CARTESIAN_POINT('',(28.,10.,0.));
#385=CARTESIAN_POINT('Origin',(30.,10.,0.));
#386=CARTESIAN_POINT('',(-28.,10.,0.));
#387=CARTESIAN_POINT('',(30.,10.,0.));
#388=CARTESIAN_POINT('',(-28.,10.,0.));
#389=CARTESIAN_POINT('Origin',(-29.,9.,0.));
#390=CARTESIAN_POINT('',(-30.,8.,0.));
#391=CARTESIAN_POINT('',(-24.,14.,0.));
#392=CARTESIAN_POINT('',(-30.,8.,0.));
#393=CARTESIAN_POINT('Origin',(-29.,-9.,0.));
#394=CARTESIAN_POINT('',(-30.,-8.,0.));
#395=CARTESIAN_POINT('',(-30.,-8.,0.));
#396=CARTESIAN_POINT('',(-24.,-14.,0.));
#397=CARTESIAN_POINT('Origin',(-30.,10.,0.));
#398=CARTESIAN_POINT('',(-30.,10.,0.));
#399=CARTESIAN_POINT('Origin',(30.,-10.,0.));
#400=CARTESIAN_POINT('',(30.,-10.,0.));
#401=CARTESIAN_POINT('Origin',(-8.32667268468867E-016,1.2490009027033E-015,
0.));
#402=UNCERTAINTY_MEASURE_WITH_UNIT(LENGTH_MEASURE(0.01),#406,
'DISTANCE_ACCURACY_VALUE',
'Maximum model space distance between geometric entities at asserted c
onnectivities');
#403=UNCERTAINTY_MEASURE_WITH_UNIT(LENGTH_MEASURE(1.E-006),#406,
'DISTANCE_ACCURACY_VALUE',
'Maximum model space distance between geometric entities at asserted c
onnectivities');
#404=(
GEOMETRIC_REPRESENTATION_CONTEXT(3)
GLOBAL_UNCERTAINTY_ASSIGNED_CONTEXT((#402))
GLOBAL_UNIT_ASSIGNED_CONTEXT((#406,#409,#407))
REPRESENTATION_CONTEXT('','3D')
);
#405=(
GEOMETRIC_REPRESENTATION_CONTEXT(3)
GLOBAL_UNCERTAINTY_ASSIGNED_CONTEXT((#403))
GLOBAL_UNIT_ASSIGNED_CONTEXT((#406,#409,#407))
REPRESENTATION_CONTEXT('','3D')
);
#406=(
LENGTH_UNIT()
NAMED_UNIT(*)
SI_UNIT(.MILLI.,.METRE.)
);
#407=(
NAMED_UNIT(*)
SI_UNIT($,.STERADIAN.)
SOLID_ANGLE_UNIT()
);
#408=DIMENSIONAL_EXPONENTS(0.,0.,0.,0.,0.,0.,0.);
#409=(
CONVERSION_BASED_UNIT('degree',#411)
NAMED_UNIT(#408)
PLANE_ANGLE_UNIT()
);
#410=(
NAMED_UNIT(*)
PLANE_ANGLE_UNIT()
SI_UNIT($,.RADIAN.)
);
#411=PLANE_ANGLE_MEASURE_WITH_UNIT(PLANE_ANGLE_MEASURE(0.01745329252),#410);
#412=SHAPE_DEFINITION_REPRESENTATION(#413,#414);
#413=PRODUCT_DEFINITION_SHAPE('',$,#416);
#414=SHAPE_REPRESENTATION('',(#252),#404);
#415=DESIGN_CONTEXT('part definition',#420,'design');
#416=PRODUCT_DEFINITION('10523_KriTec_Lasche_5_60x20x3_schwarz',
'10523_KriTec_Lasche_5_60x20x3_schwarz',#417,#415);
#417=PRODUCT_DEFINITION_FORMATION('',$,#422);
#418=PRODUCT_RELATED_PRODUCT_CATEGORY(
'10523_KriTec_Lasche_5_60x20x3_schwarz',
'10523_KriTec_Lasche_5_60x20x3_schwarz',(#422));
#419=APPLICATION_PROTOCOL_DEFINITION('international standard',
'ap203_configuration_controlled_3d_design_of_mechanical_parts_and_asse
mblies_mim_lf',2004,#420);
#420=APPLICATION_CONTEXT(
'Configuration Controlled 3D Design of Mechanical Parts and Assemblies');
#421=MECHANICAL_CONTEXT('part definition',#420,'mechanical');
#422=PRODUCT('10523_KriTec_Lasche_5_60x20x3_schwarz',
'10523_KriTec_Lasche_5_60x20x3_schwarz',$,(#421));
#423=PRESENTATION_STYLE_ASSIGNMENT((#424));
#424=SURFACE_STYLE_USAGE(.BOTH.,#425);
#425=SURFACE_SIDE_STYLE($,(#426));
#426=SURFACE_STYLE_FILL_AREA(#427);
#427=FILL_AREA_STYLE($,(#428));
#428=FILL_AREA_STYLE_COLOUR($,#429);
#429=COLOUR_RGB('',0.250980392156863,0.250980392156863,0.250980392156863);
ENDSEC;
END-ISO-10303-21;
