ISO-10303-21;
HEADER;
/* Generated by software containing ST-Developer
 * from STEP Tools, Inc. (www.steptools.com) 
 */

FILE_DESCRIPTION(
/* description */ ('Wasserstrahlteil'),
/* implementation_level */ '2;1');

FILE_NAME(
/* name */ 
'S:\\Bilder_neu\\10519_KriTec_Lasche_8_D40_D40_Stahl_verzinkt_mit_Befe
stigungssatz\\Inventordateien\\10519_KriTec_Lasche_8_D40_D40_Stahl_ver
zinkt.stp',
/* time_stamp */ '2014-06-17T14:27:11+02:00',
/* author */ ('kostic'),
/* organization */ (''),
/* preprocessor_version */ 'ST-DEVELOPER v15.2',
/* originating_system */ 'Autodesk Inventor 2014',
/* authorisation */ '');

FILE_SCHEMA (('AUTOMOTIVE_DESIGN { 1 0 10303 214 3 1 1 }'));
ENDSEC;

DATA;
#10=SHAPE_REPRESENTATION_RELATIONSHIP('SRR','None',#289,#11);
#11=ADVANCED_BREP_SHAPE_REPRESENTATION($,(#164),#280);
#12=STYLED_ITEM($,(#297),#164);
#13=PLANE($,#179);
#14=PLANE($,#183);
#15=PLANE($,#184);
#16=PLANE($,#185);
#17=LINE($,#258,#25);
#18=LINE($,#261,#26);
#19=LINE($,#264,#27);
#20=LINE($,#266,#28);
#21=LINE($,#267,#29);
#22=LINE($,#273,#30);
#23=LINE($,#275,#31);
#24=LINE($,#276,#32);
#25=VECTOR($,#212,4.);
#26=VECTOR($,#215,4.);
#27=VECTOR($,#218,42.);
#28=VECTOR($,#219,42.);
#29=VECTOR($,#220,4.);
#30=VECTOR($,#227,4.);
#31=VECTOR($,#230,42.);
#32=VECTOR($,#231,42.);
#33=CYLINDRICAL_SURFACE($,#169,4.25);
#34=CYLINDRICAL_SURFACE($,#174,4.25);
#35=CYLINDRICAL_SURFACE($,#176,20.);
#36=CYLINDRICAL_SURFACE($,#180,20.);
#37=FACE_BOUND($,#56,.T.);
#38=FACE_BOUND($,#58,.T.);
#39=FACE_BOUND($,#60,.T.);
#40=FACE_BOUND($,#62,.T.);
#41=FACE_BOUND($,#67,.T.);
#42=FACE_BOUND($,#68,.T.);
#43=FACE_BOUND($,#69,.T.);
#44=FACE_BOUND($,#70,.T.);
#45=FACE_BOUND($,#71,.T.);
#46=FACE_BOUND($,#72,.T.);
#47=FACE_OUTER_BOUND($,#55,.T.);
#48=FACE_OUTER_BOUND($,#57,.T.);
#49=FACE_OUTER_BOUND($,#59,.T.);
#50=FACE_OUTER_BOUND($,#61,.T.);
#51=FACE_OUTER_BOUND($,#63,.T.);
#52=FACE_OUTER_BOUND($,#64,.T.);
#53=FACE_OUTER_BOUND($,#65,.T.);
#54=FACE_OUTER_BOUND($,#66,.T.);
#55=EDGE_LOOP($,(#115));
#56=EDGE_LOOP($,(#116));
#57=EDGE_LOOP($,(#117));
#58=EDGE_LOOP($,(#118));
#59=EDGE_LOOP($,(#119));
#60=EDGE_LOOP($,(#120));
#61=EDGE_LOOP($,(#121));
#62=EDGE_LOOP($,(#122));
#63=EDGE_LOOP($,(#123,#124,#125,#126));
#64=EDGE_LOOP($,(#127,#128,#129,#130));
#65=EDGE_LOOP($,(#131,#132,#133,#134));
#66=EDGE_LOOP($,(#135,#136,#137,#138));
#67=EDGE_LOOP($,(#139));
#68=EDGE_LOOP($,(#140));
#69=EDGE_LOOP($,(#141,#142,#143,#144));
#70=EDGE_LOOP($,(#145));
#71=EDGE_LOOP($,(#146));
#72=EDGE_LOOP($,(#147,#148,#149,#150));
#73=CIRCLE($,#167,8.2);
#74=CIRCLE($,#168,4.25);
#75=CIRCLE($,#170,4.25);
#76=CIRCLE($,#172,8.2);
#77=CIRCLE($,#173,4.25);
#78=CIRCLE($,#175,4.25);
#79=CIRCLE($,#177,20.);
#80=CIRCLE($,#178,20.);
#81=CIRCLE($,#181,20.);
#82=CIRCLE($,#182,20.);
#83=VERTEX_POINT($,#238);
#84=VERTEX_POINT($,#240);
#85=VERTEX_POINT($,#243);
#86=VERTEX_POINT($,#246);
#87=VERTEX_POINT($,#248);
#88=VERTEX_POINT($,#251);
#89=VERTEX_POINT($,#254);
#90=VERTEX_POINT($,#255);
#91=VERTEX_POINT($,#257);
#92=VERTEX_POINT($,#259);
#93=VERTEX_POINT($,#263);
#94=VERTEX_POINT($,#265);
#95=VERTEX_POINT($,#269);
#96=VERTEX_POINT($,#271);
#97=EDGE_CURVE($,#83,#83,#73,.T.);
#98=EDGE_CURVE($,#84,#84,#74,.T.);
#99=EDGE_CURVE($,#85,#85,#75,.T.);
#100=EDGE_CURVE($,#86,#86,#76,.T.);
#101=EDGE_CURVE($,#87,#87,#77,.T.);
#102=EDGE_CURVE($,#88,#88,#78,.T.);
#103=EDGE_CURVE($,#89,#90,#79,.T.);
#104=EDGE_CURVE($,#90,#91,#17,.T.);
#105=EDGE_CURVE($,#92,#91,#80,.T.);
#106=EDGE_CURVE($,#89,#92,#18,.T.);
#107=EDGE_CURVE($,#93,#89,#19,.T.);
#108=EDGE_CURVE($,#94,#92,#20,.T.);
#109=EDGE_CURVE($,#93,#94,#21,.T.);
#110=EDGE_CURVE($,#95,#93,#81,.T.);
#111=EDGE_CURVE($,#96,#94,#82,.T.);
#112=EDGE_CURVE($,#95,#96,#22,.T.);
#113=EDGE_CURVE($,#90,#95,#23,.T.);
#114=EDGE_CURVE($,#91,#96,#24,.T.);
#115=ORIENTED_EDGE($,*,*,#97,.F.);
#116=ORIENTED_EDGE($,*,*,#98,.F.);
#117=ORIENTED_EDGE($,*,*,#99,.F.);
#118=ORIENTED_EDGE($,*,*,#98,.T.);
#119=ORIENTED_EDGE($,*,*,#100,.F.);
#120=ORIENTED_EDGE($,*,*,#101,.F.);
#121=ORIENTED_EDGE($,*,*,#102,.F.);
#122=ORIENTED_EDGE($,*,*,#101,.T.);
#123=ORIENTED_EDGE($,*,*,#103,.T.);
#124=ORIENTED_EDGE($,*,*,#104,.T.);
#125=ORIENTED_EDGE($,*,*,#105,.F.);
#126=ORIENTED_EDGE($,*,*,#106,.F.);
#127=ORIENTED_EDGE($,*,*,#107,.T.);
#128=ORIENTED_EDGE($,*,*,#106,.T.);
#129=ORIENTED_EDGE($,*,*,#108,.F.);
#130=ORIENTED_EDGE($,*,*,#109,.F.);
#131=ORIENTED_EDGE($,*,*,#110,.T.);
#132=ORIENTED_EDGE($,*,*,#109,.T.);
#133=ORIENTED_EDGE($,*,*,#111,.F.);
#134=ORIENTED_EDGE($,*,*,#112,.F.);
#135=ORIENTED_EDGE($,*,*,#113,.T.);
#136=ORIENTED_EDGE($,*,*,#112,.T.);
#137=ORIENTED_EDGE($,*,*,#114,.F.);
#138=ORIENTED_EDGE($,*,*,#104,.F.);
#139=ORIENTED_EDGE($,*,*,#97,.T.);
#140=ORIENTED_EDGE($,*,*,#100,.T.);
#141=ORIENTED_EDGE($,*,*,#114,.T.);
#142=ORIENTED_EDGE($,*,*,#111,.T.);
#143=ORIENTED_EDGE($,*,*,#108,.T.);
#144=ORIENTED_EDGE($,*,*,#105,.T.);
#145=ORIENTED_EDGE($,*,*,#99,.T.);
#146=ORIENTED_EDGE($,*,*,#102,.T.);
#147=ORIENTED_EDGE($,*,*,#113,.F.);
#148=ORIENTED_EDGE($,*,*,#103,.F.);
#149=ORIENTED_EDGE($,*,*,#107,.F.);
#150=ORIENTED_EDGE($,*,*,#110,.F.);
#151=CONICAL_SURFACE($,#166,6.225,45.);
#152=CONICAL_SURFACE($,#171,6.225,45.);
#153=ADVANCED_FACE($,(#47,#37),#151,.F.);
#154=ADVANCED_FACE($,(#48,#38),#33,.F.);
#155=ADVANCED_FACE($,(#49,#39),#152,.F.);
#156=ADVANCED_FACE($,(#50,#40),#34,.F.);
#157=ADVANCED_FACE($,(#51),#35,.T.);
#158=ADVANCED_FACE($,(#52),#13,.T.);
#159=ADVANCED_FACE($,(#53),#36,.T.);
#160=ADVANCED_FACE($,(#54),#14,.T.);
#161=ADVANCED_FACE($,(#41,#42,#43),#15,.T.);
#162=ADVANCED_FACE($,(#44,#45,#46),#16,.F.);
#163=CLOSED_SHELL($,(#153,#154,#155,#156,#157,#158,#159,#160,#161,#162));
#164=MANIFOLD_SOLID_BREP('Volumenk\X\F6rper4',#163);
#165=AXIS2_PLACEMENT_3D('placement',#236,#186,#187);
#166=AXIS2_PLACEMENT_3D($,#237,#188,#189);
#167=AXIS2_PLACEMENT_3D($,#239,#190,#191);
#168=AXIS2_PLACEMENT_3D($,#241,#192,#193);
#169=AXIS2_PLACEMENT_3D($,#242,#194,#195);
#170=AXIS2_PLACEMENT_3D($,#244,#196,#197);
#171=AXIS2_PLACEMENT_3D($,#245,#198,#199);
#172=AXIS2_PLACEMENT_3D($,#247,#200,#201);
#173=AXIS2_PLACEMENT_3D($,#249,#202,#203);
#174=AXIS2_PLACEMENT_3D($,#250,#204,#205);
#175=AXIS2_PLACEMENT_3D($,#252,#206,#207);
#176=AXIS2_PLACEMENT_3D($,#253,#208,#209);
#177=AXIS2_PLACEMENT_3D($,#256,#210,#211);
#178=AXIS2_PLACEMENT_3D($,#260,#213,#214);
#179=AXIS2_PLACEMENT_3D($,#262,#216,#217);
#180=AXIS2_PLACEMENT_3D($,#268,#221,#222);
#181=AXIS2_PLACEMENT_3D($,#270,#223,#224);
#182=AXIS2_PLACEMENT_3D($,#272,#225,#226);
#183=AXIS2_PLACEMENT_3D($,#274,#228,#229);
#184=AXIS2_PLACEMENT_3D($,#277,#232,#233);
#185=AXIS2_PLACEMENT_3D($,#278,#234,#235);
#186=DIRECTION('axis',(0.,0.,1.));
#187=DIRECTION('refdir',(1.,0.,0.));
#188=DIRECTION('center_axis',(0.,0.,1.));
#189=DIRECTION('ref_axis',(1.,0.,0.));
#190=DIRECTION('center_axis',(0.,0.,-1.));
#191=DIRECTION('ref_axis',(1.,0.,0.));
#192=DIRECTION('center_axis',(0.,0.,1.));
#193=DIRECTION('ref_axis',(1.,0.,0.));
#194=DIRECTION('center_axis',(0.,0.,1.));
#195=DIRECTION('ref_axis',(1.,0.,0.));
#196=DIRECTION('center_axis',(0.,0.,1.));
#197=DIRECTION('ref_axis',(1.,0.,0.));
#198=DIRECTION('center_axis',(0.,0.,1.));
#199=DIRECTION('ref_axis',(1.,0.,0.));
#200=DIRECTION('center_axis',(0.,0.,-1.));
#201=DIRECTION('ref_axis',(1.,0.,0.));
#202=DIRECTION('center_axis',(0.,0.,1.));
#203=DIRECTION('ref_axis',(1.,0.,0.));
#204=DIRECTION('center_axis',(0.,0.,1.));
#205=DIRECTION('ref_axis',(1.,0.,0.));
#206=DIRECTION('center_axis',(0.,0.,1.));
#207=DIRECTION('ref_axis',(1.,0.,0.));
#208=DIRECTION('center_axis',(0.,0.,1.));
#209=DIRECTION('ref_axis',(0.,1.,0.));
#210=DIRECTION('center_axis',(0.,0.,1.));
#211=DIRECTION('ref_axis',(0.,1.,0.));
#212=DIRECTION($,(0.,0.,1.));
#213=DIRECTION('center_axis',(0.,0.,1.));
#214=DIRECTION('ref_axis',(0.,1.,0.));
#215=DIRECTION($,(0.,0.,1.));
#216=DIRECTION('center_axis',(2.11471052309554E-016,1.,0.));
#217=DIRECTION('ref_axis',(-1.,3.5527136788005E-016,0.));
#218=DIRECTION($,(-1.,2.11471052309554E-016,0.));
#219=DIRECTION($,(-1.,2.11471052309554E-016,0.));
#220=DIRECTION($,(0.,0.,1.));
#221=DIRECTION('center_axis',(0.,0.,1.));
#222=DIRECTION('ref_axis',(-2.22044604925031E-016,-1.,0.));
#223=DIRECTION('center_axis',(0.,0.,1.));
#224=DIRECTION('ref_axis',(-2.22044604925031E-016,-1.,0.));
#225=DIRECTION('center_axis',(0.,0.,1.));
#226=DIRECTION('ref_axis',(-2.22044604925031E-016,-1.,0.));
#227=DIRECTION($,(0.,0.,1.));
#228=DIRECTION('center_axis',(-1.05735526154777E-016,-1.,0.));
#229=DIRECTION('ref_axis',(1.,0.,0.));
#230=DIRECTION($,(1.,-1.05735526154777E-016,0.));
#231=DIRECTION($,(1.,-1.05735526154777E-016,0.));
#232=DIRECTION('center_axis',(0.,0.,1.));
#233=DIRECTION('ref_axis',(1.,0.,0.));
#234=DIRECTION('center_axis',(0.,0.,1.));
#235=DIRECTION('ref_axis',(1.,0.,0.));
#236=CARTESIAN_POINT('',(0.,0.,0.));
#237=CARTESIAN_POINT('Origin',(-21.,1.11022302462516E-015,2.025));
#238=CARTESIAN_POINT('',(-12.8,1.11022302462516E-015,4.));
#239=CARTESIAN_POINT('Origin',(-21.,1.11022302462516E-015,4.));
#240=CARTESIAN_POINT('',(-16.75,1.11022302462516E-015,0.0500000000000006));
#241=CARTESIAN_POINT('Origin',(-21.,1.11022302462516E-015,0.0500000000000045));
#242=CARTESIAN_POINT('Origin',(-21.,1.11022302462516E-015,-87.323600454647));
#243=CARTESIAN_POINT('',(-25.25,5.89748134987531E-016,0.));
#244=CARTESIAN_POINT('Origin',(-21.,1.11022302462516E-015,0.));
#245=CARTESIAN_POINT('Origin',(21.,-1.11022302462516E-015,2.025));
#246=CARTESIAN_POINT('',(29.2,-1.11022302462516E-015,4.));
#247=CARTESIAN_POINT('Origin',(21.,-1.11022302462516E-015,4.));
#248=CARTESIAN_POINT('',(25.25,-1.11022302462516E-015,0.0500000000000006));
#249=CARTESIAN_POINT('Origin',(21.,-1.11022302462516E-015,0.0500000000000045));
#250=CARTESIAN_POINT('Origin',(21.,-1.11022302462516E-015,-87.323600454647));
#251=CARTESIAN_POINT('',(16.75,-1.63069791426278E-015,0.));
#252=CARTESIAN_POINT('Origin',(21.,-1.11022302462516E-015,0.));
#253=CARTESIAN_POINT('Origin',(-21.,1.11022302462516E-015,0.));
#254=CARTESIAN_POINT('',(-21.,20.,0.));
#255=CARTESIAN_POINT('',(-21.,-20.,0.));
#256=CARTESIAN_POINT('Origin',(-21.,1.11022302462516E-015,0.));
#257=CARTESIAN_POINT('',(-21.,-20.,4.));
#258=CARTESIAN_POINT($,(-21.,-20.,0.));
#259=CARTESIAN_POINT('',(-21.,20.,4.));
#260=CARTESIAN_POINT('Origin',(-21.,1.11022302462516E-015,4.));
#261=CARTESIAN_POINT($,(-21.,20.,0.));
#262=CARTESIAN_POINT('Origin',(21.,20.,0.));
#263=CARTESIAN_POINT('',(21.,20.,0.));
#264=CARTESIAN_POINT($,(21.,20.,0.));
#265=CARTESIAN_POINT('',(21.,20.,4.));
#266=CARTESIAN_POINT($,(21.,20.,4.));
#267=CARTESIAN_POINT($,(21.,20.,0.));
#268=CARTESIAN_POINT('Origin',(21.,-1.11022302462516E-015,0.));
#269=CARTESIAN_POINT('',(21.,-20.,0.));
#270=CARTESIAN_POINT('Origin',(21.,-1.11022302462516E-015,0.));
#271=CARTESIAN_POINT('',(21.,-20.,4.));
#272=CARTESIAN_POINT('Origin',(21.,-1.11022302462516E-015,4.));
#273=CARTESIAN_POINT($,(21.,-20.,0.));
#274=CARTESIAN_POINT('Origin',(-21.,-20.,0.));
#275=CARTESIAN_POINT($,(-21.,-20.,0.));
#276=CARTESIAN_POINT($,(-21.,-20.,4.));
#277=CARTESIAN_POINT('Origin',(-1.49484906065296E-015,-5.39671609306643E-016,
4.));
#278=CARTESIAN_POINT('Origin',(-1.49484906065296E-015,-5.39671609306643E-016,
0.));
#279=UNCERTAINTY_MEASURE_WITH_UNIT(LENGTH_MEASURE(0.01),#281,
'DISTANCE_ACCURACY_VALUE',
'Maximum model space distance between geometric entities at asserted c
onnectivities');
#280=(
GEOMETRIC_REPRESENTATION_CONTEXT(3)
GLOBAL_UNCERTAINTY_ASSIGNED_CONTEXT((#279))
GLOBAL_UNIT_ASSIGNED_CONTEXT((#281,#284,#282))
REPRESENTATION_CONTEXT('','3D')
);
#281=(
LENGTH_UNIT()
NAMED_UNIT(*)
SI_UNIT(.MILLI.,.METRE.)
);
#282=(
NAMED_UNIT(*)
SI_UNIT($,.STERADIAN.)
SOLID_ANGLE_UNIT()
);
#283=DIMENSIONAL_EXPONENTS(0.,0.,0.,0.,0.,0.,0.);
#284=(
CONVERSION_BASED_UNIT('degree',#286)
NAMED_UNIT(#283)
PLANE_ANGLE_UNIT()
);
#285=(
NAMED_UNIT(*)
PLANE_ANGLE_UNIT()
SI_UNIT($,.RADIAN.)
);
#286=PLANE_ANGLE_MEASURE_WITH_UNIT(PLANE_ANGLE_MEASURE(0.01745329252),#285);
#287=SHAPE_DEFINITION_REPRESENTATION(#288,#289);
#288=PRODUCT_DEFINITION_SHAPE('',$,#291);
#289=SHAPE_REPRESENTATION('',(#165),#280);
#290=PRODUCT_DEFINITION_CONTEXT('3D Mechanical Parts',#294,'design');
#291=PRODUCT_DEFINITION('10519_KriTec_Lasche_8_D40_D40_Stahl_verzinkt',
'10519_KriTec_Lasche_8_D40_D40_Stahl_verzinkt',#292,#290);
#292=PRODUCT_DEFINITION_FORMATION('',$,#296);
#293=APPLICATION_PROTOCOL_DEFINITION('international standard',
'automotive_design',2009,#294);
#294=APPLICATION_CONTEXT(
'Core Data for Automotive Mechanical Design Process');
#295=PRODUCT_CONTEXT('3D Mechanical Parts',#294,'mechanical');
#296=PRODUCT('10519_KriTec_Lasche_8_D40_D40_Stahl_verzinkt',
'10519_KriTec_Lasche_8_D40_D40_Stahl_verzinkt',$,(#295));
#297=PRESENTATION_STYLE_ASSIGNMENT((#298));
#298=SURFACE_STYLE_USAGE(.BOTH.,#299);
#299=SURFACE_SIDE_STYLE($,(#300));
#300=SURFACE_STYLE_FILL_AREA(#301);
#301=FILL_AREA_STYLE($,(#302));
#302=FILL_AREA_STYLE_COLOUR($,#303);
#303=COLOUR_RGB('',0.831372549019608,0.831372549019608,0.831372549019608);
ENDSEC;
END-ISO-10303-21;
