ISO-10303-21;
HEADER;
/* Generated by software containing ST-Developer
 * from STEP Tools, Inc. (www.steptools.com) 
 */

FILE_DESCRIPTION(
/* description */ ('KriTec Handgriff AL 160 gebogen, schwarz'),
/* implementation_level */ '2;1');

FILE_NAME(
/* name */ 
'S:\\Bilder_neu\\10508_KriTec_Handgriff_Al_160_gebogen_schwarz\\Invent
ordateien\\11202_KriTec_Handgriff_AL_120_gebogen.stp',
/* time_stamp */ '2018-05-22T09:59:35+02:00',
/* author */ ('kostic'),
/* organization */ (''),
/* preprocessor_version */ 'ST-DEVELOPER v16.1',
/* originating_system */ 'Autodesk Inventor 2016',
/* authorisation */ '');

FILE_SCHEMA (('AUTOMOTIVE_DESIGN { 1 0 10303 214 3 1 1 }'));
ENDSEC;

DATA;
#10=MECHANICAL_DESIGN_GEOMETRIC_PRESENTATION_REPRESENTATION('',(#13),#249);
#11=SHAPE_REPRESENTATION_RELATIONSHIP('SRR','None',#258,#12);
#12=ADVANCED_BREP_SHAPE_REPRESENTATION('',(#14),#248);
#13=STYLED_ITEM('',(#267),#14);
#14=MANIFOLD_SOLID_BREP('Volumenk\X\F6rper1',#137);
#15=PLANE('',#149);
#16=PLANE('',#161);
#17=TOROIDAL_SURFACE('',#143,16.9999999999999,5.);
#18=TOROIDAL_SURFACE('',#145,16.9996813663833,4.99999999999999);
#19=TOROIDAL_SURFACE('',#154,16.9999999999999,5.);
#20=TOROIDAL_SURFACE('',#157,16.9996813663833,4.99999999999999);
#21=FACE_BOUND('',#42,.T.);
#22=FACE_BOUND('',#44,.T.);
#23=FACE_BOUND('',#46,.T.);
#24=FACE_BOUND('',#48,.T.);
#25=FACE_BOUND('',#51,.T.);
#26=FACE_BOUND('',#53,.T.);
#27=FACE_BOUND('',#55,.T.);
#28=FACE_BOUND('',#57,.T.);
#29=FACE_BOUND('',#59,.T.);
#30=FACE_OUTER_BOUND('',#41,.T.);
#31=FACE_OUTER_BOUND('',#43,.T.);
#32=FACE_OUTER_BOUND('',#45,.T.);
#33=FACE_OUTER_BOUND('',#47,.T.);
#34=FACE_OUTER_BOUND('',#49,.T.);
#35=FACE_OUTER_BOUND('',#50,.T.);
#36=FACE_OUTER_BOUND('',#52,.T.);
#37=FACE_OUTER_BOUND('',#54,.T.);
#38=FACE_OUTER_BOUND('',#56,.T.);
#39=FACE_OUTER_BOUND('',#58,.T.);
#40=FACE_OUTER_BOUND('',#60,.T.);
#41=EDGE_LOOP('',(#97,#98));
#42=EDGE_LOOP('',(#99));
#43=EDGE_LOOP('',(#100,#101));
#44=EDGE_LOOP('',(#102));
#45=EDGE_LOOP('',(#103));
#46=EDGE_LOOP('',(#104));
#47=EDGE_LOOP('',(#105));
#48=EDGE_LOOP('',(#106));
#49=EDGE_LOOP('',(#107));
#50=EDGE_LOOP('',(#108,#109));
#51=EDGE_LOOP('',(#110));
#52=EDGE_LOOP('',(#111,#112));
#53=EDGE_LOOP('',(#113));
#54=EDGE_LOOP('',(#114));
#55=EDGE_LOOP('',(#115));
#56=EDGE_LOOP('',(#116));
#57=EDGE_LOOP('',(#117));
#58=EDGE_LOOP('',(#118));
#59=EDGE_LOOP('',(#119));
#60=EDGE_LOOP('',(#120));
#61=CIRCLE('',#140,5.00000000000001);
#62=CIRCLE('',#141,5.00000000000001);
#63=CIRCLE('',#142,4.99999999999999);
#64=CIRCLE('',#144,5.00000000000002);
#65=CIRCLE('',#146,5.);
#66=CIRCLE('',#148,5.);
#67=CIRCLE('',#151,5.00000000000001);
#68=CIRCLE('',#152,5.00000000000001);
#69=CIRCLE('',#153,4.99999999999999);
#70=CIRCLE('',#155,5.00000000000002);
#71=CIRCLE('',#158,5.);
#72=CIRCLE('',#160,5.);
#73=VERTEX_POINT('',#212);
#74=VERTEX_POINT('',#213);
#75=VERTEX_POINT('',#216);
#76=VERTEX_POINT('',#219);
#77=VERTEX_POINT('',#222);
#78=VERTEX_POINT('',#225);
#79=VERTEX_POINT('',#229);
#80=VERTEX_POINT('',#230);
#81=VERTEX_POINT('',#233);
#82=VERTEX_POINT('',#236);
#83=VERTEX_POINT('',#240);
#84=VERTEX_POINT('',#243);
#85=EDGE_CURVE('',#73,#74,#61,.T.);
#86=EDGE_CURVE('',#74,#73,#62,.T.);
#87=EDGE_CURVE('',#75,#75,#63,.T.);
#88=EDGE_CURVE('',#76,#76,#64,.T.);
#89=EDGE_CURVE('',#77,#77,#65,.T.);
#90=EDGE_CURVE('',#78,#78,#66,.T.);
#91=EDGE_CURVE('',#79,#80,#67,.T.);
#92=EDGE_CURVE('',#80,#79,#68,.T.);
#93=EDGE_CURVE('',#81,#81,#69,.T.);
#94=EDGE_CURVE('',#82,#82,#70,.T.);
#95=EDGE_CURVE('',#83,#83,#71,.T.);
#96=EDGE_CURVE('',#84,#84,#72,.T.);
#97=ORIENTED_EDGE('',*,*,#85,.T.);
#98=ORIENTED_EDGE('',*,*,#86,.T.);
#99=ORIENTED_EDGE('',*,*,#87,.T.);
#100=ORIENTED_EDGE('',*,*,#86,.F.);
#101=ORIENTED_EDGE('',*,*,#85,.F.);
#102=ORIENTED_EDGE('',*,*,#88,.T.);
#103=ORIENTED_EDGE('',*,*,#87,.F.);
#104=ORIENTED_EDGE('',*,*,#89,.T.);
#105=ORIENTED_EDGE('',*,*,#89,.F.);
#106=ORIENTED_EDGE('',*,*,#90,.F.);
#107=ORIENTED_EDGE('',*,*,#90,.T.);
#108=ORIENTED_EDGE('',*,*,#91,.F.);
#109=ORIENTED_EDGE('',*,*,#92,.F.);
#110=ORIENTED_EDGE('',*,*,#93,.F.);
#111=ORIENTED_EDGE('',*,*,#92,.T.);
#112=ORIENTED_EDGE('',*,*,#91,.T.);
#113=ORIENTED_EDGE('',*,*,#94,.F.);
#114=ORIENTED_EDGE('',*,*,#88,.F.);
#115=ORIENTED_EDGE('',*,*,#94,.T.);
#116=ORIENTED_EDGE('',*,*,#93,.T.);
#117=ORIENTED_EDGE('',*,*,#95,.F.);
#118=ORIENTED_EDGE('',*,*,#95,.T.);
#119=ORIENTED_EDGE('',*,*,#96,.T.);
#120=ORIENTED_EDGE('',*,*,#96,.F.);
#121=CYLINDRICAL_SURFACE('',#139,4.99999999896404);
#122=CYLINDRICAL_SURFACE('',#147,5.);
#123=CYLINDRICAL_SURFACE('',#150,4.99999999896404);
#124=CYLINDRICAL_SURFACE('',#156,5.00000000000002);
#125=CYLINDRICAL_SURFACE('',#159,5.);
#126=ADVANCED_FACE('',(#30,#21),#121,.T.);
#127=ADVANCED_FACE('',(#31,#22),#17,.T.);
#128=ADVANCED_FACE('',(#32,#23),#18,.T.);
#129=ADVANCED_FACE('',(#33,#24),#122,.T.);
#130=ADVANCED_FACE('',(#34),#15,.T.);
#131=ADVANCED_FACE('',(#35,#25),#123,.T.);
#132=ADVANCED_FACE('',(#36,#26),#19,.T.);
#133=ADVANCED_FACE('',(#37,#27),#124,.T.);
#134=ADVANCED_FACE('',(#38,#28),#20,.T.);
#135=ADVANCED_FACE('',(#39,#29),#125,.T.);
#136=ADVANCED_FACE('',(#40),#16,.F.);
#137=CLOSED_SHELL('',(#126,#127,#128,#129,#130,#131,#132,#133,#134,#135,
#136));
#138=AXIS2_PLACEMENT_3D('placement',#210,#162,#163);
#139=AXIS2_PLACEMENT_3D('',#211,#164,#165);
#140=AXIS2_PLACEMENT_3D('',#214,#166,#167);
#141=AXIS2_PLACEMENT_3D('',#215,#168,#169);
#142=AXIS2_PLACEMENT_3D('',#217,#170,#171);
#143=AXIS2_PLACEMENT_3D('',#218,#172,#173);
#144=AXIS2_PLACEMENT_3D('',#220,#174,#175);
#145=AXIS2_PLACEMENT_3D('',#221,#176,#177);
#146=AXIS2_PLACEMENT_3D('',#223,#178,#179);
#147=AXIS2_PLACEMENT_3D('',#224,#180,#181);
#148=AXIS2_PLACEMENT_3D('',#226,#182,#183);
#149=AXIS2_PLACEMENT_3D('',#227,#184,#185);
#150=AXIS2_PLACEMENT_3D('',#228,#186,#187);
#151=AXIS2_PLACEMENT_3D('',#231,#188,#189);
#152=AXIS2_PLACEMENT_3D('',#232,#190,#191);
#153=AXIS2_PLACEMENT_3D('',#234,#192,#193);
#154=AXIS2_PLACEMENT_3D('',#235,#194,#195);
#155=AXIS2_PLACEMENT_3D('',#237,#196,#197);
#156=AXIS2_PLACEMENT_3D('',#238,#198,#199);
#157=AXIS2_PLACEMENT_3D('',#239,#200,#201);
#158=AXIS2_PLACEMENT_3D('',#241,#202,#203);
#159=AXIS2_PLACEMENT_3D('',#242,#204,#205);
#160=AXIS2_PLACEMENT_3D('',#244,#206,#207);
#161=AXIS2_PLACEMENT_3D('',#245,#208,#209);
#162=DIRECTION('axis',(0.,0.,1.));
#163=DIRECTION('refdir',(1.,0.,0.));
#164=DIRECTION('center_axis',(-7.46376296200191E-15,0.866015225357014,0.500017629139054));
#165=DIRECTION('ref_axis',(-1.06533460933546E-6,0.500017629138771,-0.866015225356522));
#166=DIRECTION('center_axis',(1.99175802838568E-16,-0.866025403784438,-0.500000000000001));
#167=DIRECTION('ref_axis',(0.866025403784438,0.250000000000001,-0.43301270189222));
#168=DIRECTION('center_axis',(1.99175802838568E-16,-0.866025403784438,-0.500000000000001));
#169=DIRECTION('ref_axis',(0.866025403784438,0.250000000000001,-0.43301270189222));
#170=DIRECTION('center_axis',(-4.15267453819193E-16,0.866025403784439,0.5));
#171=DIRECTION('ref_axis',(-1.,-3.51312040070832E-16,-2.22044604925031E-16));
#172=DIRECTION('center_axis',(8.5259487517933E-17,-0.5,0.866025403784439));
#173=DIRECTION('ref_axis',(-1.,0.,0.));
#174=DIRECTION('center_axis',(1.,6.66133814775094E-16,2.22044604925031E-16));
#175=DIRECTION('ref_axis',(-6.66133814775094E-16,1.,-9.86076131526264E-32));
#176=DIRECTION('center_axis',(1.,3.51312040070832E-16,2.22044604925031E-16));
#177=DIRECTION('ref_axis',(0.,0.,1.));
#178=DIRECTION('center_axis',(-2.22044604925031E-16,-4.93038065763132E-32,
1.));
#179=DIRECTION('ref_axis',(-1.,-4.44089209850063E-16,-2.22044604925031E-16));
#180=DIRECTION('center_axis',(2.22044604925031E-16,4.93038065763132E-32,
-1.));
#181=DIRECTION('ref_axis',(-1.,-4.44089209850063E-16,-2.22044604925031E-16));
#182=DIRECTION('center_axis',(2.22044604925031E-16,4.93038065763132E-32,
-1.));
#183=DIRECTION('ref_axis',(-1.,-4.44089209850063E-16,-2.22044604925031E-16));
#184=DIRECTION('center_axis',(2.22044604925031E-16,4.93038065763132E-32,
-1.));
#185=DIRECTION('ref_axis',(-1.,0.,-2.22044604925031E-16));
#186=DIRECTION('center_axis',(-6.96814872793726E-15,-0.866015225357014,
-0.500017629139054));
#187=DIRECTION('ref_axis',(1.0653346093057E-6,0.500017629138771,-0.866015225356522));
#188=DIRECTION('center_axis',(-2.96439036900661E-16,0.866025403784438,0.500000000000001));
#189=DIRECTION('ref_axis',(-0.866025403784438,0.25,-0.43301270189222));
#190=DIRECTION('center_axis',(-2.96439036900661E-16,0.866025403784438,0.500000000000001));
#191=DIRECTION('ref_axis',(-0.866025403784438,0.25,-0.43301270189222));
#192=DIRECTION('center_axis',(8.03473859200354E-17,-0.866025403784439,-0.5));
#193=DIRECTION('ref_axis',(1.,9.27771697792304E-17,0.));
#194=DIRECTION('center_axis',(-5.55111512312578E-17,-0.5,0.866025403784439));
#195=DIRECTION('ref_axis',(1.,0.,1.61486985400023E-16));
#196=DIRECTION('center_axis',(1.,-2.22044604925031E-16,4.93038065763132E-32));
#197=DIRECTION('ref_axis',(2.22044604925031E-16,1.,0.));
#198=DIRECTION('center_axis',(1.,0.,0.));
#199=DIRECTION('ref_axis',(0.,1.,0.));
#200=DIRECTION('center_axis',(-1.,-9.27771697792304E-17,0.));
#201=DIRECTION('ref_axis',(0.,0.,1.));
#202=DIRECTION('center_axis',(0.,0.,-1.));
#203=DIRECTION('ref_axis',(1.,0.,0.));
#204=DIRECTION('center_axis',(0.,0.,1.));
#205=DIRECTION('ref_axis',(1.,0.,0.));
#206=DIRECTION('center_axis',(0.,0.,1.));
#207=DIRECTION('ref_axis',(1.,0.,0.));
#208=DIRECTION('center_axis',(0.,0.,1.));
#209=DIRECTION('ref_axis',(1.,0.,0.));
#210=CARTESIAN_POINT('',(0.,0.,0.));
#211=CARTESIAN_POINT('Origin',(160.,65.2775681356647,26.5));
#212=CARTESIAN_POINT('',(165.,65.2775681348089,26.5000000014823));
#213=CARTESIAN_POINT('',(164.330127018922,66.5275681356647,24.3349364905389));
#214=CARTESIAN_POINT('Origin',(160.,65.2775681356647,26.5));
#215=CARTESIAN_POINT('Origin',(160.,65.2775681356647,26.5));
#216=CARTESIAN_POINT('',(155.,58.4998406831917,22.5866932676165));
#217=CARTESIAN_POINT('Origin',(160.,58.4998406831917,22.5866932676165));
#218=CARTESIAN_POINT('Origin',(143.,65.2775681356646,26.5));
#219=CARTESIAN_POINT('',(143.,77.5,39.3301270189222));
#220=CARTESIAN_POINT('Origin',(143.,80.,35.));
#221=CARTESIAN_POINT('Origin',(160.,66.9996813663834,7.86453734808761));
#222=CARTESIAN_POINT('',(155.,50.,7.8645373480876));
#223=CARTESIAN_POINT('Origin',(160.,50.,7.86453734808761));
#224=CARTESIAN_POINT('Origin',(160.,50.,1.77635683940025E-14));
#225=CARTESIAN_POINT('',(155.,50.,1.66533453693773E-14));
#226=CARTESIAN_POINT('Origin',(160.,50.,1.77635683940025E-14));
#227=CARTESIAN_POINT('Origin',(160.,50.,1.77635683940025E-14));
#228=CARTESIAN_POINT('Origin',(7.105427357601E-14,65.2775681356646,26.5));
#229=CARTESIAN_POINT('',(-4.99999999999991,65.2775681348088,26.5000000014822));
#230=CARTESIAN_POINT('',(-4.33012701892213,66.5275681356646,24.3349364905389));
#231=CARTESIAN_POINT('Origin',(7.105427357601E-14,65.2775681356646,26.5));
#232=CARTESIAN_POINT('Origin',(7.105427357601E-14,65.2775681356646,26.5));
#233=CARTESIAN_POINT('',(4.99999999999999,58.4998406831917,22.5866932676165));
#234=CARTESIAN_POINT('Origin',(1.4210854715202E-14,58.4998406831917,22.5866932676165));
#235=CARTESIAN_POINT('Origin',(17.,65.2775681356646,26.5));
#236=CARTESIAN_POINT('',(17.,77.5,39.3301270189222));
#237=CARTESIAN_POINT('Origin',(17.,80.,35.));
#238=CARTESIAN_POINT('Origin',(17.,80.,35.));
#239=CARTESIAN_POINT('Origin',(0.,66.9996813663834,7.86453734808759));
#240=CARTESIAN_POINT('',(5.,50.,7.86453734808759));
#241=CARTESIAN_POINT('Origin',(0.,50.,7.86453734808759));
#242=CARTESIAN_POINT('Origin',(0.,50.,0.));
#243=CARTESIAN_POINT('',(5.,50.,0.));
#244=CARTESIAN_POINT('Origin',(0.,50.,0.));
#245=CARTESIAN_POINT('Origin',(6.80936788436763E-15,50.,0.));
#246=UNCERTAINTY_MEASURE_WITH_UNIT(LENGTH_MEASURE(0.01),#250,
'DISTANCE_ACCURACY_VALUE',
'Maximum model space distance between geometric entities at asserted c
onnectivities');
#247=UNCERTAINTY_MEASURE_WITH_UNIT(LENGTH_MEASURE(1.E-6),#250,
'DISTANCE_ACCURACY_VALUE',
'Maximum model space distance between geometric entities at asserted c
onnectivities');
#248=(
GEOMETRIC_REPRESENTATION_CONTEXT(3)
GLOBAL_UNCERTAINTY_ASSIGNED_CONTEXT((#246))
GLOBAL_UNIT_ASSIGNED_CONTEXT((#250,#253,#251))
REPRESENTATION_CONTEXT('','3D')
);
#249=(
GEOMETRIC_REPRESENTATION_CONTEXT(3)
GLOBAL_UNCERTAINTY_ASSIGNED_CONTEXT((#247))
GLOBAL_UNIT_ASSIGNED_CONTEXT((#250,#253,#251))
REPRESENTATION_CONTEXT('','3D')
);
#250=(
LENGTH_UNIT()
NAMED_UNIT(*)
SI_UNIT(.MILLI.,.METRE.)
);
#251=(
NAMED_UNIT(*)
SI_UNIT($,.STERADIAN.)
SOLID_ANGLE_UNIT()
);
#252=DIMENSIONAL_EXPONENTS(0.,0.,0.,0.,0.,0.,0.);
#253=(
CONVERSION_BASED_UNIT('degree',#255)
NAMED_UNIT(#252)
PLANE_ANGLE_UNIT()
);
#254=(
NAMED_UNIT(*)
PLANE_ANGLE_UNIT()
SI_UNIT($,.RADIAN.)
);
#255=PLANE_ANGLE_MEASURE_WITH_UNIT(PLANE_ANGLE_MEASURE(0.01745329252),#254);
#256=SHAPE_DEFINITION_REPRESENTATION(#257,#258);
#257=PRODUCT_DEFINITION_SHAPE('',$,#260);
#258=SHAPE_REPRESENTATION('',(#138),#248);
#259=PRODUCT_DEFINITION_CONTEXT('part definition',#264,'design');
#260=PRODUCT_DEFINITION('11202_KriTec_Handgriff_AL_120_gebogen',
'11202_KriTec_Handgriff_AL_120_gebogen',#261,#259);
#261=PRODUCT_DEFINITION_FORMATION('',$,#266);
#262=PRODUCT_RELATED_PRODUCT_CATEGORY(
'11202_KriTec_Handgriff_AL_120_gebogen',
'11202_KriTec_Handgriff_AL_120_gebogen',(#266));
#263=APPLICATION_PROTOCOL_DEFINITION('international standard',
'automotive_design',2009,#264);
#264=APPLICATION_CONTEXT(
'Core Data for Automotive Mechanical Design Process');
#265=PRODUCT_CONTEXT('part definition',#264,'mechanical');
#266=PRODUCT('11202_KriTec_Handgriff_AL_120_gebogen',
'11202_KriTec_Handgriff_AL_120_gebogen',$,(#265));
#267=PRESENTATION_STYLE_ASSIGNMENT((#268));
#268=SURFACE_STYLE_USAGE(.BOTH.,#269);
#269=SURFACE_SIDE_STYLE('',(#270));
#270=SURFACE_STYLE_FILL_AREA(#271);
#271=FILL_AREA_STYLE('',(#272));
#272=FILL_AREA_STYLE_COLOUR('',#273);
#273=COLOUR_RGB('',0.250980392156863,0.250980392156863,0.250980392156863);
ENDSEC;
END-ISO-10303-21;
