ISO-10303-21;
HEADER;
/* Generated by software containing ST-Developer
 * from STEP Tools, Inc. (www.steptools.com) 
 */

FILE_DESCRIPTION(
/* description */ ('KriTec Handgriff AL 160 gerade, schwarz'),
/* implementation_level */ '2;1');

FILE_NAME(
/* name */ 
'S:\\Bilder_neu\\10507_KriTec_Handgriff_Al_160_gerade_schwarz\\Invento
rdateien\\11207_KriTec_Handgriff_AL_160_gerade_schwarz.stp',
/* time_stamp */ '2018-05-22T09:11:54+02:00',
/* author */ ('kostic'),
/* organization */ (''),
/* preprocessor_version */ 'ST-DEVELOPER v16.1',
/* originating_system */ 'Autodesk Inventor 2016',
/* authorisation */ '');

FILE_SCHEMA (('AUTOMOTIVE_DESIGN { 1 0 10303 214 3 1 1 }'));
ENDSEC;

DATA;
#10=MECHANICAL_DESIGN_GEOMETRIC_PRESENTATION_REPRESENTATION('',(#13),#149);
#11=SHAPE_REPRESENTATION_RELATIONSHIP('SRR','None',#158,#12);
#12=ADVANCED_BREP_SHAPE_REPRESENTATION('',(#14),#148);
#13=STYLED_ITEM('',(#167),#14);
#14=MANIFOLD_SOLID_BREP('Volumenk\X\F6rper1',#83);
#15=PLANE('',#96);
#16=PLANE('',#97);
#17=TOROIDAL_SURFACE('',#88,14.9999999999999,5.);
#18=TOROIDAL_SURFACE('',#92,14.9999999999999,5.);
#19=FACE_BOUND('',#32,.T.);
#20=FACE_BOUND('',#34,.T.);
#21=FACE_BOUND('',#36,.T.);
#22=FACE_BOUND('',#38,.T.);
#23=FACE_BOUND('',#40,.T.);
#24=FACE_OUTER_BOUND('',#31,.T.);
#25=FACE_OUTER_BOUND('',#33,.T.);
#26=FACE_OUTER_BOUND('',#35,.T.);
#27=FACE_OUTER_BOUND('',#37,.T.);
#28=FACE_OUTER_BOUND('',#39,.T.);
#29=FACE_OUTER_BOUND('',#41,.T.);
#30=FACE_OUTER_BOUND('',#42,.T.);
#31=EDGE_LOOP('',(#61));
#32=EDGE_LOOP('',(#62));
#33=EDGE_LOOP('',(#63));
#34=EDGE_LOOP('',(#64));
#35=EDGE_LOOP('',(#65));
#36=EDGE_LOOP('',(#66));
#37=EDGE_LOOP('',(#67));
#38=EDGE_LOOP('',(#68));
#39=EDGE_LOOP('',(#69));
#40=EDGE_LOOP('',(#70));
#41=EDGE_LOOP('',(#71));
#42=EDGE_LOOP('',(#72));
#43=CIRCLE('',#86,5.);
#44=CIRCLE('',#87,5.);
#45=CIRCLE('',#89,5.);
#46=CIRCLE('',#91,5.);
#47=CIRCLE('',#93,5.);
#48=CIRCLE('',#95,5.);
#49=VERTEX_POINT('',#128);
#50=VERTEX_POINT('',#130);
#51=VERTEX_POINT('',#133);
#52=VERTEX_POINT('',#136);
#53=VERTEX_POINT('',#139);
#54=VERTEX_POINT('',#142);
#55=EDGE_CURVE('',#49,#49,#43,.T.);
#56=EDGE_CURVE('',#50,#50,#44,.T.);
#57=EDGE_CURVE('',#51,#51,#45,.T.);
#58=EDGE_CURVE('',#52,#52,#46,.T.);
#59=EDGE_CURVE('',#53,#53,#47,.T.);
#60=EDGE_CURVE('',#54,#54,#48,.T.);
#61=ORIENTED_EDGE('',*,*,#55,.F.);
#62=ORIENTED_EDGE('',*,*,#56,.T.);
#63=ORIENTED_EDGE('',*,*,#56,.F.);
#64=ORIENTED_EDGE('',*,*,#57,.T.);
#65=ORIENTED_EDGE('',*,*,#57,.F.);
#66=ORIENTED_EDGE('',*,*,#58,.T.);
#67=ORIENTED_EDGE('',*,*,#58,.F.);
#68=ORIENTED_EDGE('',*,*,#59,.T.);
#69=ORIENTED_EDGE('',*,*,#59,.F.);
#70=ORIENTED_EDGE('',*,*,#60,.F.);
#71=ORIENTED_EDGE('',*,*,#55,.T.);
#72=ORIENTED_EDGE('',*,*,#60,.T.);
#73=CYLINDRICAL_SURFACE('',#85,5.);
#74=CYLINDRICAL_SURFACE('',#90,5.);
#75=CYLINDRICAL_SURFACE('',#94,5.);
#76=ADVANCED_FACE('',(#24,#19),#73,.T.);
#77=ADVANCED_FACE('',(#25,#20),#17,.T.);
#78=ADVANCED_FACE('',(#26,#21),#74,.T.);
#79=ADVANCED_FACE('',(#27,#22),#18,.T.);
#80=ADVANCED_FACE('',(#28,#23),#75,.T.);
#81=ADVANCED_FACE('',(#29),#15,.T.);
#82=ADVANCED_FACE('',(#30),#16,.F.);
#83=CLOSED_SHELL('',(#76,#77,#78,#79,#80,#81,#82));
#84=AXIS2_PLACEMENT_3D('placement',#126,#98,#99);
#85=AXIS2_PLACEMENT_3D('',#127,#100,#101);
#86=AXIS2_PLACEMENT_3D('',#129,#102,#103);
#87=AXIS2_PLACEMENT_3D('',#131,#104,#105);
#88=AXIS2_PLACEMENT_3D('',#132,#106,#107);
#89=AXIS2_PLACEMENT_3D('',#134,#108,#109);
#90=AXIS2_PLACEMENT_3D('',#135,#110,#111);
#91=AXIS2_PLACEMENT_3D('',#137,#112,#113);
#92=AXIS2_PLACEMENT_3D('',#138,#114,#115);
#93=AXIS2_PLACEMENT_3D('',#140,#116,#117);
#94=AXIS2_PLACEMENT_3D('',#141,#118,#119);
#95=AXIS2_PLACEMENT_3D('',#143,#120,#121);
#96=AXIS2_PLACEMENT_3D('',#144,#122,#123);
#97=AXIS2_PLACEMENT_3D('',#145,#124,#125);
#98=DIRECTION('axis',(0.,0.,1.));
#99=DIRECTION('refdir',(1.,0.,0.));
#100=DIRECTION('center_axis',(0.,0.,-1.));
#101=DIRECTION('ref_axis',(1.,0.,0.));
#102=DIRECTION('center_axis',(-9.9579925010296E-17,0.,-1.));
#103=DIRECTION('ref_axis',(1.,0.,-9.9579925010296E-17));
#104=DIRECTION('center_axis',(-9.9579925010296E-17,0.,-1.));
#105=DIRECTION('ref_axis',(1.,0.,-9.9579925010296E-17));
#106=DIRECTION('center_axis',(0.,1.,0.));
#107=DIRECTION('ref_axis',(0.,0.,1.));
#108=DIRECTION('center_axis',(1.,0.,-1.60812264967664E-16));
#109=DIRECTION('ref_axis',(1.60812264967664E-16,0.,1.));
#110=DIRECTION('center_axis',(1.,0.,-1.36642833800019E-16));
#111=DIRECTION('ref_axis',(1.36642833800019E-16,0.,1.));
#112=DIRECTION('center_axis',(1.,0.,-1.60812264967664E-16));
#113=DIRECTION('ref_axis',(1.60812264967664E-16,0.,1.));
#114=DIRECTION('center_axis',(0.,1.,0.));
#115=DIRECTION('ref_axis',(0.,0.,1.));
#116=DIRECTION('center_axis',(0.,0.,1.));
#117=DIRECTION('ref_axis',(-1.,0.,0.));
#118=DIRECTION('center_axis',(0.,0.,1.));
#119=DIRECTION('ref_axis',(-1.,0.,0.));
#120=DIRECTION('center_axis',(0.,0.,-1.));
#121=DIRECTION('ref_axis',(-1.,0.,0.));
#122=DIRECTION('center_axis',(-9.9579925010296E-17,0.,-1.));
#123=DIRECTION('ref_axis',(-1.,0.,9.95799250102962E-17));
#124=DIRECTION('center_axis',(0.,0.,1.));
#125=DIRECTION('ref_axis',(1.,0.,0.));
#126=CARTESIAN_POINT('',(0.,0.,0.));
#127=CARTESIAN_POINT('Origin',(160.,0.,20.));
#128=CARTESIAN_POINT('',(155.,6.12323399573677E-16,-1.77635683940025E-14));
#129=CARTESIAN_POINT('Origin',(160.,0.,-2.22044604925031E-14));
#130=CARTESIAN_POINT('',(155.,6.12323399573677E-16,20.));
#131=CARTESIAN_POINT('Origin',(160.,0.,20.));
#132=CARTESIAN_POINT('Origin',(145.,0.,20.));
#133=CARTESIAN_POINT('',(145.,6.12323399573677E-16,29.9999999999999));
#134=CARTESIAN_POINT('Origin',(145.,0.,34.9999999999999));
#135=CARTESIAN_POINT('Origin',(14.9999999999999,0.,34.9999999999999));
#136=CARTESIAN_POINT('',(14.9999999999999,6.12323399573677E-16,29.9999999999999));
#137=CARTESIAN_POINT('Origin',(14.9999999999999,0.,34.9999999999999));
#138=CARTESIAN_POINT('Origin',(14.9999999999999,0.,20.));
#139=CARTESIAN_POINT('',(5.,6.12323399573677E-16,20.));
#140=CARTESIAN_POINT('Origin',(0.,0.,20.));
#141=CARTESIAN_POINT('Origin',(0.,0.,0.));
#142=CARTESIAN_POINT('',(5.,6.12323399573677E-16,0.));
#143=CARTESIAN_POINT('Origin',(0.,0.,0.));
#144=CARTESIAN_POINT('Origin',(160.,9.25185853854297E-17,-1.77635683940025E-14));
#145=CARTESIAN_POINT('Origin',(-2.36064120735332E-16,9.25185853854297E-17,
0.));
#146=UNCERTAINTY_MEASURE_WITH_UNIT(LENGTH_MEASURE(0.01),#150,
'DISTANCE_ACCURACY_VALUE',
'Maximum model space distance between geometric entities at asserted c
onnectivities');
#147=UNCERTAINTY_MEASURE_WITH_UNIT(LENGTH_MEASURE(1.E-6),#150,
'DISTANCE_ACCURACY_VALUE',
'Maximum model space distance between geometric entities at asserted c
onnectivities');
#148=(
GEOMETRIC_REPRESENTATION_CONTEXT(3)
GLOBAL_UNCERTAINTY_ASSIGNED_CONTEXT((#146))
GLOBAL_UNIT_ASSIGNED_CONTEXT((#150,#153,#151))
REPRESENTATION_CONTEXT('','3D')
);
#149=(
GEOMETRIC_REPRESENTATION_CONTEXT(3)
GLOBAL_UNCERTAINTY_ASSIGNED_CONTEXT((#147))
GLOBAL_UNIT_ASSIGNED_CONTEXT((#150,#153,#151))
REPRESENTATION_CONTEXT('','3D')
);
#150=(
LENGTH_UNIT()
NAMED_UNIT(*)
SI_UNIT(.MILLI.,.METRE.)
);
#151=(
NAMED_UNIT(*)
SI_UNIT($,.STERADIAN.)
SOLID_ANGLE_UNIT()
);
#152=DIMENSIONAL_EXPONENTS(0.,0.,0.,0.,0.,0.,0.);
#153=(
CONVERSION_BASED_UNIT('degree',#155)
NAMED_UNIT(#152)
PLANE_ANGLE_UNIT()
);
#154=(
NAMED_UNIT(*)
PLANE_ANGLE_UNIT()
SI_UNIT($,.RADIAN.)
);
#155=PLANE_ANGLE_MEASURE_WITH_UNIT(PLANE_ANGLE_MEASURE(0.01745329252),#154);
#156=SHAPE_DEFINITION_REPRESENTATION(#157,#158);
#157=PRODUCT_DEFINITION_SHAPE('',$,#160);
#158=SHAPE_REPRESENTATION('',(#84),#148);
#159=PRODUCT_DEFINITION_CONTEXT('part definition',#164,'design');
#160=PRODUCT_DEFINITION('11207_KriTec_Handgriff_AL_160_gerade_schwarz',
'11207_KriTec_Handgriff_AL_160_gerade_schwarz',#161,#159);
#161=PRODUCT_DEFINITION_FORMATION('',$,#166);
#162=PRODUCT_RELATED_PRODUCT_CATEGORY(
'11207_KriTec_Handgriff_AL_160_gerade_schwarz',
'11207_KriTec_Handgriff_AL_160_gerade_schwarz',(#166));
#163=APPLICATION_PROTOCOL_DEFINITION('international standard',
'automotive_design',2009,#164);
#164=APPLICATION_CONTEXT(
'Core Data for Automotive Mechanical Design Process');
#165=PRODUCT_CONTEXT('part definition',#164,'mechanical');
#166=PRODUCT('11207_KriTec_Handgriff_AL_160_gerade_schwarz',
'11207_KriTec_Handgriff_AL_160_gerade_schwarz',$,(#165));
#167=PRESENTATION_STYLE_ASSIGNMENT((#168));
#168=SURFACE_STYLE_USAGE(.BOTH.,#169);
#169=SURFACE_SIDE_STYLE('',(#170));
#170=SURFACE_STYLE_FILL_AREA(#171);
#171=FILL_AREA_STYLE('',(#172));
#172=FILL_AREA_STYLE_COLOUR('',#173);
#173=COLOUR_RGB('',0.250980392156863,0.250980392156863,0.250980392156863);
ENDSEC;
END-ISO-10303-21;
