ISO-10303-21;
HEADER;
/****************************************************************
 * Generated by software with PDE/Lib inside                    *
 * PDElib Version v51a, created Thu 01/14/2010                  *
 * ITI Transcendata (http://www.transcendata.com/)              *
 ****************************************************************/
FILE_DESCRIPTION((''),'2;1');
FILE_NAME('C:\\Users\\KriTec2\\Desktop\\CAD\\Aluminiumprofiltechnik\\Gleitleiste\\10171 KriTec Gleitleiste 8 gekr\S\vpft.stp','2012-01-24T09:24:35',('KriTec2'),(''),'Autodesk Inventor 2011','Autodesk Inventor 2011','');
FILE_SCHEMA(('CONFIG_CONTROL_DESIGN'));
ENDSEC;
DATA;
#5=APPLICATION_CONTEXT('configuration controlled 3D designs of mechanical parts and assemblies');
#6=APPLICATION_PROTOCOL_DEFINITION('International Standard','ap203_configuration_controlled_3d_design_of_mechanical_parts_and_assemblies_mim_lf',2004,#5);
#7=PRODUCT_CONTEXT('',#5,'mechanical');
#8=PRODUCT('10171 KriTec Gleitleiste 8 gekr\S\vpft','10171 KriTec Gleitleiste 8 gekr\S\vpft',$,(#7));
#9=PRODUCT_RELATED_PRODUCT_CATEGORY('part',$,(#8));
#10=PRODUCT_DEFINITION_FORMATION('',$,#8);
#11=PRODUCT_DEFINITION_CONTEXT('part definition',#5,'design');
#12=PRODUCT_DEFINITION('',$,#10,#11);
#18=(NAMED_UNIT(*)PLANE_ANGLE_UNIT()SI_UNIT($,.RADIAN.));
#19=DIMENSIONAL_EXPONENTS(0.0,0.0,0.0,0.0,0.0,0.0,0.0);
#20=PLANE_ANGLE_MEASURE_WITH_UNIT(PLANE_ANGLE_MEASURE(0.017453292500000),#18);
#24=(CONVERSION_BASED_UNIT('DEGREE',#20)NAMED_UNIT(#19)PLANE_ANGLE_UNIT());
#28=(NAMED_UNIT(*)SI_UNIT($,.STERADIAN.)SOLID_ANGLE_UNIT());
#32=(LENGTH_UNIT()NAMED_UNIT(*)SI_UNIT(.MILLI.,.METRE.));
#34=UNCERTAINTY_MEASURE_WITH_UNIT(LENGTH_MEASURE(0.010000000000000),#32,'DISTANCE_ACCURACY_VALUE','');
#36=(GEOMETRIC_REPRESENTATION_CONTEXT(3)GLOBAL_UNCERTAINTY_ASSIGNED_CONTEXT((#34))GLOBAL_UNIT_ASSIGNED_CONTEXT((#24,#28,#32))REPRESENTATION_CONTEXT('None','None'));
#37=AXIS2_PLACEMENT_3D('',#38,#39,#40);
#38=CARTESIAN_POINT('',(0.0,0.0,0.0));
#39=DIRECTION('',(0.0,0.0,1.0));
#40=DIRECTION('',(1.0,0.0,0.0));
#41=SHAPE_REPRESENTATION('',(#37),#36);
#42=PRODUCT_DEFINITION_SHAPE('','',#12);
#43=SHAPE_DEFINITION_REPRESENTATION(#42,#41);
#49=(NAMED_UNIT(*)PLANE_ANGLE_UNIT()SI_UNIT($,.RADIAN.));
#50=DIMENSIONAL_EXPONENTS(0.0,0.0,0.0,0.0,0.0,0.0,0.0);
#51=PLANE_ANGLE_MEASURE_WITH_UNIT(PLANE_ANGLE_MEASURE(0.017453292500000),#49);
#55=(CONVERSION_BASED_UNIT('DEGREE',#51)NAMED_UNIT(#50)PLANE_ANGLE_UNIT());
#59=(NAMED_UNIT(*)SI_UNIT($,.STERADIAN.)SOLID_ANGLE_UNIT());
#63=(LENGTH_UNIT()NAMED_UNIT(*)SI_UNIT(.MILLI.,.METRE.));
#65=UNCERTAINTY_MEASURE_WITH_UNIT(LENGTH_MEASURE(0.000001000000000),#63,'DISTANCE_ACCURACY_VALUE','');
#67=(GEOMETRIC_REPRESENTATION_CONTEXT(3)GLOBAL_UNCERTAINTY_ASSIGNED_CONTEXT((#65))GLOBAL_UNIT_ASSIGNED_CONTEXT((#55,#59,#63))REPRESENTATION_CONTEXT('','3D'));
#68=CARTESIAN_POINT('',(-4.837523544586486,26.800000000000001,0.0));
#69=DIRECTION('',(0.0,0.0,1.0));
#70=DIRECTION('',(-0.707106781186546,0.707106781186549,0.0));
#71=AXIS2_PLACEMENT_3D('',#68,#69,#70);
#72=CYLINDRICAL_SURFACE('',#71,1.000000000000000);
#73=CARTESIAN_POINT('',(-5.837523544586486,26.800000000000001,100.0));
#74=VERTEX_POINT('',#73);
#75=CARTESIAN_POINT('',(-4.837523544586486,27.800000000000004,100.0));
#76=VERTEX_POINT('',#75);
#77=CARTESIAN_POINT('',(-4.837523544586486,26.800000000000001,100.0));
#78=DIRECTION('',(0.0,0.0,-1.0));
#79=DIRECTION('',(-0.707106781186546,0.707106781186549,0.0));
#80=AXIS2_PLACEMENT_3D('',#77,#78,#79);
#81=CIRCLE('',#80,1.000000000000000);
#82=EDGE_CURVE('',#74,#76,#81,.T.);
#83=ORIENTED_EDGE('',*,*,#82,.T.);
#84=CARTESIAN_POINT('',(-4.837523544586486,27.800000000000004,0.0));
#85=VERTEX_POINT('',#84);
#86=CARTESIAN_POINT('',(-4.837523544586486,27.800000000000004,100.0));
#87=DIRECTION('',(0.0,0.0,-1.0));
#88=VECTOR('',#87,100.0);
#89=LINE('',#86,#88);
#90=EDGE_CURVE('',#76,#85,#89,.T.);
#91=ORIENTED_EDGE('',*,*,#90,.T.);
#92=CARTESIAN_POINT('',(-5.837523544586486,26.800000000000001,0.0));
#93=VERTEX_POINT('',#92);
#94=CARTESIAN_POINT('',(-4.837523544586486,26.800000000000001,0.0));
#95=DIRECTION('',(0.0,0.0,1.0));
#96=DIRECTION('',(-0.707106781186546,0.707106781186549,0.0));
#97=AXIS2_PLACEMENT_3D('',#94,#95,#96);
#98=CIRCLE('',#97,1.000000000000000);
#99=EDGE_CURVE('',#85,#93,#98,.T.);
#100=ORIENTED_EDGE('',*,*,#99,.T.);
#101=CARTESIAN_POINT('',(-5.837523544586486,26.800000000000001,0.0));
#102=DIRECTION('',(0.0,0.0,1.0));
#103=VECTOR('',#102,100.0);
#104=LINE('',#101,#103);
#105=EDGE_CURVE('',#93,#74,#104,.T.);
#106=ORIENTED_EDGE('',*,*,#105,.T.);
#107=EDGE_LOOP('',(#83,#91,#100,#106));
#108=FACE_OUTER_BOUND('',#107,.T.);
#109=ADVANCED_FACE('',(#108),#72,.T.);
#110=CARTESIAN_POINT('',(-5.837523544586486,27.800000000000004,0.0));
#111=DIRECTION('',(0.0,1.0,0.0));
#112=DIRECTION('',(0.0,0.0,1.0));
#113=AXIS2_PLACEMENT_3D('',#110,#111,#112);
#114=PLANE('',#113);
#115=ORIENTED_EDGE('',*,*,#90,.F.);
#116=CARTESIAN_POINT('',(0.962476455413516,27.800000000000004,100.0));
#117=VERTEX_POINT('',#116);
#118=CARTESIAN_POINT('',(-4.837523544586486,27.800000000000004,100.0));
#119=DIRECTION('',(1.0,0.0,0.0));
#120=VECTOR('',#119,5.800000000000002);
#121=LINE('',#118,#120);
#122=EDGE_CURVE('',#76,#117,#121,.T.);
#123=ORIENTED_EDGE('',*,*,#122,.T.);
#124=CARTESIAN_POINT('',(0.962476455413516,27.800000000000004,0.0));
#125=VERTEX_POINT('',#124);
#126=CARTESIAN_POINT('',(0.962476455413516,27.800000000000004,0.0));
#127=DIRECTION('',(0.0,0.0,1.0));
#128=VECTOR('',#127,100.0);
#129=LINE('',#126,#128);
#130=EDGE_CURVE('',#125,#117,#129,.T.);
#131=ORIENTED_EDGE('',*,*,#130,.F.);
#132=CARTESIAN_POINT('',(0.962476455413516,27.800000000000004,0.0));
#133=DIRECTION('',(-1.0,0.0,0.0));
#134=VECTOR('',#133,5.800000000000002);
#135=LINE('',#132,#134);
#136=EDGE_CURVE('',#125,#85,#135,.T.);
#137=ORIENTED_EDGE('',*,*,#136,.T.);
#138=EDGE_LOOP('',(#115,#123,#131,#137));
#139=FACE_OUTER_BOUND('',#138,.T.);
#140=ADVANCED_FACE('',(#139),#114,.T.);
#141=CARTESIAN_POINT('',(-0.786123577316956,12.412429405709680,100.0));
#142=DIRECTION('',(0.0,0.0,1.0));
#143=DIRECTION('',(1.0,0.0,0.0));
#144=AXIS2_PLACEMENT_3D('',#141,#142,#143);
#145=PLANE('',#144);
#146=ORIENTED_EDGE('',*,*,#82,.F.);
#147=CARTESIAN_POINT('',(-5.837523544586487,16.0,100.0));
#148=VERTEX_POINT('',#147);
#149=CARTESIAN_POINT('',(-5.837523544586487,16.000000000000004,100.0));
#150=DIRECTION('',(0.0,1.0,0.0));
#151=VECTOR('',#150,10.800000000000001);
#152=LINE('',#149,#151);
#153=EDGE_CURVE('',#148,#74,#152,.T.);
#154=ORIENTED_EDGE('',*,*,#153,.F.);
#155=CARTESIAN_POINT('',(-3.837523544586484,12.000000000000002,100.0));
#156=VERTEX_POINT('',#155);
#157=CARTESIAN_POINT('',(-3.837523544586484,12.000000000000002,100.0));
#158=DIRECTION('',(-0.447213595499959,0.894427190999915,0.0));
#159=VECTOR('',#158,4.472135954999580);
#160=LINE('',#157,#159);
#161=EDGE_CURVE('',#156,#148,#160,.T.);
#162=ORIENTED_EDGE('',*,*,#161,.F.);
#163=CARTESIAN_POINT('',(-3.837523544586484,7.500000000000000,100.0));
#164=VERTEX_POINT('',#163);
#165=CARTESIAN_POINT('',(-3.837523544586484,7.500000000000000,100.0));
#166=DIRECTION('',(0.0,1.0,0.0));
#167=VECTOR('',#166,4.500000000000002);
#168=LINE('',#165,#167);
#169=EDGE_CURVE('',#164,#156,#168,.T.);
#170=ORIENTED_EDGE('',*,*,#169,.F.);
#171=CARTESIAN_POINT('',(-6.937523544586483,7.500000000000000,100.0));
#172=VERTEX_POINT('',#171);
#173=CARTESIAN_POINT('',(-6.937523544586483,7.500000000000000,100.0));
#174=DIRECTION('',(1.0,0.0,0.0));
#175=VECTOR('',#174,3.100000000000000);
#176=LINE('',#173,#175);
#177=EDGE_CURVE('',#172,#164,#176,.T.);
#178=ORIENTED_EDGE('',*,*,#177,.F.);
#179=CARTESIAN_POINT('',(-6.937523544586483,4.0,100.0));
#180=VERTEX_POINT('',#179);
#181=CARTESIAN_POINT('',(-6.937523544586483,4.0,100.0));
#182=DIRECTION('',(0.0,1.0,0.0));
#183=VECTOR('',#182,3.500000000000000);
#184=LINE('',#181,#183);
#185=EDGE_CURVE('',#180,#172,#184,.T.);
#186=ORIENTED_EDGE('',*,*,#185,.F.);
#187=CARTESIAN_POINT('',(-2.937523544586483,0.0,100.0));
#188=VERTEX_POINT('',#187);
#189=CARTESIAN_POINT('',(-2.937523544586483,-1.332268E-015,100.0));
#190=DIRECTION('',(-0.707106781186548,0.707106781186548,0.0));
#191=VECTOR('',#190,5.656854249492382);
#192=LINE('',#189,#191);
#193=EDGE_CURVE('',#188,#180,#192,.T.);
#194=ORIENTED_EDGE('',*,*,#193,.F.);
#195=CARTESIAN_POINT('',(3.062476455413516,0.0,100.0));
#196=VERTEX_POINT('',#195);
#197=CARTESIAN_POINT('',(3.062476455413517,0.0,100.0));
#198=DIRECTION('',(-1.0,0.0,0.0));
#199=VECTOR('',#198,6.0);
#200=LINE('',#197,#199);
#201=EDGE_CURVE('',#196,#188,#200,.T.);
#202=ORIENTED_EDGE('',*,*,#201,.F.);
#203=CARTESIAN_POINT('',(7.062476455413517,4.000000000000000,100.0));
#204=VERTEX_POINT('',#203);
#205=CARTESIAN_POINT('',(7.062476455413516,4.0,100.0));
#206=DIRECTION('',(-0.707106781186547,-0.707106781186547,0.0));
#207=VECTOR('',#206,5.656854249492380);
#208=LINE('',#205,#207);
#209=EDGE_CURVE('',#204,#196,#208,.T.);
#210=ORIENTED_EDGE('',*,*,#209,.F.);
#211=CARTESIAN_POINT('',(7.062476455413517,7.500000000000000,100.0));
#212=VERTEX_POINT('',#211);
#213=CARTESIAN_POINT('',(7.062476455413517,7.500000000000000,100.0));
#214=DIRECTION('',(0.0,-1.0,0.0));
#215=VECTOR('',#214,3.500000000000000);
#216=LINE('',#213,#215);
#217=EDGE_CURVE('',#212,#204,#216,.T.);
#218=ORIENTED_EDGE('',*,*,#217,.F.);
#219=CARTESIAN_POINT('',(3.962476455413516,7.500000000000000,100.0));
#220=VERTEX_POINT('',#219);
#221=CARTESIAN_POINT('',(3.962476455413516,7.500000000000000,100.0));
#222=DIRECTION('',(1.0,0.0,0.0));
#223=VECTOR('',#222,3.100000000000001);
#224=LINE('',#221,#223);
#225=EDGE_CURVE('',#220,#212,#224,.T.);
#226=ORIENTED_EDGE('',*,*,#225,.F.);
#227=CARTESIAN_POINT('',(3.962476455413516,12.000000000000011,100.0));
#228=VERTEX_POINT('',#227);
#229=CARTESIAN_POINT('',(3.962476455413516,12.000000000000011,100.0));
#230=DIRECTION('',(0.0,-1.0,0.0));
#231=VECTOR('',#230,4.500000000000011);
#232=LINE('',#229,#231);
#233=EDGE_CURVE('',#228,#220,#232,.T.);
#234=ORIENTED_EDGE('',*,*,#233,.F.);
#235=CARTESIAN_POINT('',(1.962476455413516,16.0,100.0));
#236=VERTEX_POINT('',#235);
#237=CARTESIAN_POINT('',(1.962476455413516,16.0,100.0));
#238=DIRECTION('',(0.447213595499959,-0.894427190999915,0.0));
#239=VECTOR('',#238,4.472135954999570);
#240=LINE('',#237,#239);
#241=EDGE_CURVE('',#236,#228,#240,.T.);
#242=ORIENTED_EDGE('',*,*,#241,.F.);
#243=CARTESIAN_POINT('',(1.962476455413516,26.800000000000001,100.0));
#244=VERTEX_POINT('',#243);
#245=CARTESIAN_POINT('',(1.962476455413516,26.800000000000001,100.0));
#246=DIRECTION('',(0.0,-1.0,0.0));
#247=VECTOR('',#246,10.800000000000001);
#248=LINE('',#245,#247);
#249=EDGE_CURVE('',#244,#236,#248,.T.);
#250=ORIENTED_EDGE('',*,*,#249,.F.);
#251=CARTESIAN_POINT('',(0.962476455413516,26.800000000000001,100.0));
#252=DIRECTION('',(0.0,0.0,-1.0));
#253=DIRECTION('',(0.707106781186546,0.707106781186549,0.0));
#254=AXIS2_PLACEMENT_3D('',#251,#252,#253);
#255=CIRCLE('',#254,1.0);
#256=EDGE_CURVE('',#117,#244,#255,.T.);
#257=ORIENTED_EDGE('',*,*,#256,.F.);
#258=ORIENTED_EDGE('',*,*,#122,.F.);
#259=EDGE_LOOP('',(#146,#154,#162,#170,#178,#186,#194,#202,#210,#218,#226,#234,#242,#250,#257,#258));
#260=FACE_OUTER_BOUND('',#259,.T.);
#261=ADVANCED_FACE('',(#260),#145,.T.);
#262=CARTESIAN_POINT('',(0.962476455413516,26.800000000000001,0.0));
#263=DIRECTION('',(0.0,0.0,1.0));
#264=DIRECTION('',(0.707106781186546,0.707106781186549,0.0));
#265=AXIS2_PLACEMENT_3D('',#262,#263,#264);
#266=CYLINDRICAL_SURFACE('',#265,1.0);
#267=ORIENTED_EDGE('',*,*,#256,.T.);
#268=CARTESIAN_POINT('',(1.962476455413516,26.800000000000001,0.0));
#269=VERTEX_POINT('',#268);
#270=CARTESIAN_POINT('',(1.962476455413516,26.800000000000001,100.0));
#271=DIRECTION('',(0.0,0.0,-1.0));
#272=VECTOR('',#271,100.0);
#273=LINE('',#270,#272);
#274=EDGE_CURVE('',#244,#269,#273,.T.);
#275=ORIENTED_EDGE('',*,*,#274,.T.);
#276=CARTESIAN_POINT('',(0.962476455413516,26.800000000000001,0.0));
#277=DIRECTION('',(0.0,0.0,1.0));
#278=DIRECTION('',(0.707106781186546,0.707106781186549,0.0));
#279=AXIS2_PLACEMENT_3D('',#276,#277,#278);
#280=CIRCLE('',#279,1.0);
#281=EDGE_CURVE('',#269,#125,#280,.T.);
#282=ORIENTED_EDGE('',*,*,#281,.T.);
#283=ORIENTED_EDGE('',*,*,#130,.T.);
#284=EDGE_LOOP('',(#267,#275,#282,#283));
#285=FACE_OUTER_BOUND('',#284,.T.);
#286=ADVANCED_FACE('',(#285),#266,.T.);
#287=CARTESIAN_POINT('',(1.962476455413516,27.800000000000004,0.0));
#288=DIRECTION('',(1.0,0.0,0.0));
#289=DIRECTION('',(0.0,0.0,-1.0));
#290=AXIS2_PLACEMENT_3D('',#287,#288,#289);
#291=PLANE('',#290);
#292=ORIENTED_EDGE('',*,*,#274,.F.);
#293=ORIENTED_EDGE('',*,*,#249,.T.);
#294=CARTESIAN_POINT('',(1.962476455413516,16.0,0.0));
#295=VERTEX_POINT('',#294);
#296=CARTESIAN_POINT('',(1.962476455413516,16.0,0.0));
#297=DIRECTION('',(0.0,0.0,1.0));
#298=VECTOR('',#297,100.0);
#299=LINE('',#296,#298);
#300=EDGE_CURVE('',#295,#236,#299,.T.);
#301=ORIENTED_EDGE('',*,*,#300,.F.);
#302=CARTESIAN_POINT('',(1.962476455413516,16.0,0.0));
#303=DIRECTION('',(0.0,1.0,0.0));
#304=VECTOR('',#303,10.800000000000001);
#305=LINE('',#302,#304);
#306=EDGE_CURVE('',#295,#269,#305,.T.);
#307=ORIENTED_EDGE('',*,*,#306,.T.);
#308=EDGE_LOOP('',(#292,#293,#301,#307));
#309=FACE_OUTER_BOUND('',#308,.T.);
#310=ADVANCED_FACE('',(#309),#291,.T.);
#311=CARTESIAN_POINT('',(5.062476455413516,2.000000000000000,0.0));
#312=DIRECTION('',(0.707106781186547,-0.707106781186548,0.0));
#313=DIRECTION('',(0.0,0.0,-1.0));
#314=AXIS2_PLACEMENT_3D('',#311,#312,#313);
#315=PLANE('',#314);
#316=ORIENTED_EDGE('',*,*,#209,.T.);
#317=CARTESIAN_POINT('',(3.062476455413516,0.0,0.0));
#318=VERTEX_POINT('',#317);
#319=CARTESIAN_POINT('',(3.062476455413516,0.0,100.0));
#320=DIRECTION('',(0.0,0.0,-1.0));
#321=VECTOR('',#320,100.0);
#322=LINE('',#319,#321);
#323=EDGE_CURVE('',#196,#318,#322,.T.);
#324=ORIENTED_EDGE('',*,*,#323,.T.);
#325=CARTESIAN_POINT('',(7.062476455413517,4.000000000000000,0.0));
#326=VERTEX_POINT('',#325);
#327=CARTESIAN_POINT('',(3.062476455413517,4.440892E-016,0.0));
#328=DIRECTION('',(0.707106781186548,0.707106781186547,0.0));
#329=VECTOR('',#328,5.656854249492380);
#330=LINE('',#327,#329);
#331=EDGE_CURVE('',#318,#326,#330,.T.);
#332=ORIENTED_EDGE('',*,*,#331,.T.);
#333=CARTESIAN_POINT('',(7.062476455413517,4.000000000000000,0.0));
#334=DIRECTION('',(0.0,0.0,1.0));
#335=VECTOR('',#334,100.0);
#336=LINE('',#333,#335);
#337=EDGE_CURVE('',#326,#204,#336,.T.);
#338=ORIENTED_EDGE('',*,*,#337,.T.);
#339=EDGE_LOOP('',(#316,#324,#332,#338));
#340=FACE_OUTER_BOUND('',#339,.T.);
#341=ADVANCED_FACE('',(#340),#315,.T.);
#342=CARTESIAN_POINT('',(7.062476455413517,0.0,0.0));
#343=DIRECTION('',(0.0,-1.0,0.0));
#344=DIRECTION('',(0.0,0.0,-1.0));
#345=AXIS2_PLACEMENT_3D('',#342,#343,#344);
#346=PLANE('',#345);
#347=ORIENTED_EDGE('',*,*,#323,.F.);
#348=ORIENTED_EDGE('',*,*,#201,.T.);
#349=CARTESIAN_POINT('',(-2.937523544586483,0.0,0.0));
#350=VERTEX_POINT('',#349);
#351=CARTESIAN_POINT('',(-2.937523544586483,0.0,0.0));
#352=DIRECTION('',(0.0,0.0,1.0));
#353=VECTOR('',#352,100.0);
#354=LINE('',#351,#353);
#355=EDGE_CURVE('',#350,#188,#354,.T.);
#356=ORIENTED_EDGE('',*,*,#355,.F.);
#357=CARTESIAN_POINT('',(-2.937523544586483,0.0,0.0));
#358=DIRECTION('',(1.0,0.0,0.0));
#359=VECTOR('',#358,6.0);
#360=LINE('',#357,#359);
#361=EDGE_CURVE('',#350,#318,#360,.T.);
#362=ORIENTED_EDGE('',*,*,#361,.T.);
#363=EDGE_LOOP('',(#347,#348,#356,#362));
#364=FACE_OUTER_BOUND('',#363,.T.);
#365=ADVANCED_FACE('',(#364),#346,.T.);
#366=CARTESIAN_POINT('',(-4.937523544586483,2.0,0.0));
#367=DIRECTION('',(-0.707106781186548,-0.707106781186548,0.0));
#368=DIRECTION('',(0.0,0.0,1.0));
#369=AXIS2_PLACEMENT_3D('',#366,#367,#368);
#370=PLANE('',#369);
#371=ORIENTED_EDGE('',*,*,#193,.T.);
#372=CARTESIAN_POINT('',(-6.937523544586483,4.0,0.0));
#373=VERTEX_POINT('',#372);
#374=CARTESIAN_POINT('',(-6.937523544586483,4.0,100.0));
#375=DIRECTION('',(0.0,0.0,-1.0));
#376=VECTOR('',#375,100.0);
#377=LINE('',#374,#376);
#378=EDGE_CURVE('',#180,#373,#377,.T.);
#379=ORIENTED_EDGE('',*,*,#378,.T.);
#380=CARTESIAN_POINT('',(-6.937523544586482,4.000000000000001,0.0));
#381=DIRECTION('',(0.707106781186547,-0.707106781186547,0.0));
#382=VECTOR('',#381,5.656854249492381);
#383=LINE('',#380,#382);
#384=EDGE_CURVE('',#373,#350,#383,.T.);
#385=ORIENTED_EDGE('',*,*,#384,.T.);
#386=ORIENTED_EDGE('',*,*,#355,.T.);
#387=EDGE_LOOP('',(#371,#379,#385,#386));
#388=FACE_OUTER_BOUND('',#387,.T.);
#389=ADVANCED_FACE('',(#388),#370,.T.);
#390=CARTESIAN_POINT('',(-6.937523544586483,0.0,0.0));
#391=DIRECTION('',(-1.0,0.0,0.0));
#392=DIRECTION('',(0.0,0.0,1.0));
#393=AXIS2_PLACEMENT_3D('',#390,#391,#392);
#394=PLANE('',#393);
#395=ORIENTED_EDGE('',*,*,#378,.F.);
#396=ORIENTED_EDGE('',*,*,#185,.T.);
#397=CARTESIAN_POINT('',(-6.937523544586483,7.500000000000000,0.0));
#398=VERTEX_POINT('',#397);
#399=CARTESIAN_POINT('',(-6.937523544586483,7.500000000000000,0.0));
#400=DIRECTION('',(0.0,0.0,1.0));
#401=VECTOR('',#400,100.0);
#402=LINE('',#399,#401);
#403=EDGE_CURVE('',#398,#172,#402,.T.);
#404=ORIENTED_EDGE('',*,*,#403,.F.);
#405=CARTESIAN_POINT('',(-6.937523544586483,7.500000000000000,0.0));
#406=DIRECTION('',(0.0,-1.0,0.0));
#407=VECTOR('',#406,3.500000000000000);
#408=LINE('',#405,#407);
#409=EDGE_CURVE('',#398,#373,#408,.T.);
#410=ORIENTED_EDGE('',*,*,#409,.T.);
#411=EDGE_LOOP('',(#395,#396,#404,#410));
#412=FACE_OUTER_BOUND('',#411,.T.);
#413=ADVANCED_FACE('',(#412),#394,.T.);
#414=CARTESIAN_POINT('',(-6.937523544586483,7.500000000000000,0.0));
#415=DIRECTION('',(0.0,1.0,0.0));
#416=DIRECTION('',(0.0,0.0,1.0));
#417=AXIS2_PLACEMENT_3D('',#414,#415,#416);
#418=PLANE('',#417);
#419=ORIENTED_EDGE('',*,*,#177,.T.);
#420=CARTESIAN_POINT('',(-3.837523544586484,7.500000000000000,0.0));
#421=VERTEX_POINT('',#420);
#422=CARTESIAN_POINT('',(-3.837523544586484,7.500000000000000,0.0));
#423=DIRECTION('',(0.0,0.0,1.0));
#424=VECTOR('',#423,100.0);
#425=LINE('',#422,#424);
#426=EDGE_CURVE('',#421,#164,#425,.T.);
#427=ORIENTED_EDGE('',*,*,#426,.F.);
#428=CARTESIAN_POINT('',(-3.837523544586484,7.500000000000000,0.0));
#429=DIRECTION('',(-1.0,0.0,0.0));
#430=VECTOR('',#429,3.100000000000000);
#431=LINE('',#428,#430);
#432=EDGE_CURVE('',#421,#398,#431,.T.);
#433=ORIENTED_EDGE('',*,*,#432,.T.);
#434=ORIENTED_EDGE('',*,*,#403,.T.);
#435=EDGE_LOOP('',(#419,#427,#433,#434));
#436=FACE_OUTER_BOUND('',#435,.T.);
#437=ADVANCED_FACE('',(#436),#418,.T.);
#438=CARTESIAN_POINT('',(-3.837523544586484,7.500000000000000,0.0));
#439=DIRECTION('',(-1.0,0.0,0.0));
#440=DIRECTION('',(0.0,0.0,1.0));
#441=AXIS2_PLACEMENT_3D('',#438,#439,#440);
#442=PLANE('',#441);
#443=ORIENTED_EDGE('',*,*,#169,.T.);
#444=CARTESIAN_POINT('',(-3.837523544586484,12.000000000000002,0.0));
#445=VERTEX_POINT('',#444);
#446=CARTESIAN_POINT('',(-3.837523544586484,12.000000000000002,0.0));
#447=DIRECTION('',(0.0,0.0,1.0));
#448=VECTOR('',#447,100.0);
#449=LINE('',#446,#448);
#450=EDGE_CURVE('',#445,#156,#449,.T.);
#451=ORIENTED_EDGE('',*,*,#450,.F.);
#452=CARTESIAN_POINT('',(-3.837523544586484,12.000000000000002,0.0));
#453=DIRECTION('',(0.0,-1.0,0.0));
#454=VECTOR('',#453,4.500000000000002);
#455=LINE('',#452,#454);
#456=EDGE_CURVE('',#445,#421,#455,.T.);
#457=ORIENTED_EDGE('',*,*,#456,.T.);
#458=ORIENTED_EDGE('',*,*,#426,.T.);
#459=EDGE_LOOP('',(#443,#451,#457,#458));
#460=FACE_OUTER_BOUND('',#459,.T.);
#461=ADVANCED_FACE('',(#460),#442,.T.);
#462=CARTESIAN_POINT('',(-3.837523544586484,12.000000000000002,0.0));
#463=DIRECTION('',(-0.894427190999916,-0.447213595499959,0.0));
#464=DIRECTION('',(0.0,0.0,1.0));
#465=AXIS2_PLACEMENT_3D('',#462,#463,#464);
#466=PLANE('',#465);
#467=ORIENTED_EDGE('',*,*,#161,.T.);
#468=CARTESIAN_POINT('',(-5.837523544586487,16.0,0.0));
#469=VERTEX_POINT('',#468);
#470=CARTESIAN_POINT('',(-5.837523544586487,16.0,0.0));
#471=DIRECTION('',(0.0,0.0,1.0));
#472=VECTOR('',#471,100.0);
#473=LINE('',#470,#472);
#474=EDGE_CURVE('',#469,#148,#473,.T.);
#475=ORIENTED_EDGE('',*,*,#474,.F.);
#476=CARTESIAN_POINT('',(-5.837523544586487,16.0,0.0));
#477=DIRECTION('',(0.447213595499959,-0.894427190999915,0.0));
#478=VECTOR('',#477,4.472135954999580);
#479=LINE('',#476,#478);
#480=EDGE_CURVE('',#469,#445,#479,.T.);
#481=ORIENTED_EDGE('',*,*,#480,.T.);
#482=ORIENTED_EDGE('',*,*,#450,.T.);
#483=EDGE_LOOP('',(#467,#475,#481,#482));
#484=FACE_OUTER_BOUND('',#483,.T.);
#485=ADVANCED_FACE('',(#484),#466,.T.);
#486=CARTESIAN_POINT('',(-5.837523544586487,16.0,0.0));
#487=DIRECTION('',(-1.0,0.0,0.0));
#488=DIRECTION('',(0.0,0.0,1.0));
#489=AXIS2_PLACEMENT_3D('',#486,#487,#488);
#490=PLANE('',#489);
#491=ORIENTED_EDGE('',*,*,#105,.F.);
#492=CARTESIAN_POINT('',(-5.837523544586486,26.800000000000004,0.0));
#493=DIRECTION('',(0.0,-1.0,0.0));
#494=VECTOR('',#493,10.800000000000001);
#495=LINE('',#492,#494);
#496=EDGE_CURVE('',#93,#469,#495,.T.);
#497=ORIENTED_EDGE('',*,*,#496,.T.);
#498=ORIENTED_EDGE('',*,*,#474,.T.);
#499=ORIENTED_EDGE('',*,*,#153,.T.);
#500=EDGE_LOOP('',(#491,#497,#498,#499));
#501=FACE_OUTER_BOUND('',#500,.T.);
#502=ADVANCED_FACE('',(#501),#490,.T.);
#503=CARTESIAN_POINT('',(1.962476455413516,16.0,0.0));
#504=DIRECTION('',(0.894427190999915,0.447213595499959,0.0));
#505=DIRECTION('',(0.0,0.0,-1.0));
#506=AXIS2_PLACEMENT_3D('',#503,#504,#505);
#507=PLANE('',#506);
#508=ORIENTED_EDGE('',*,*,#241,.T.);
#509=CARTESIAN_POINT('',(3.962476455413516,12.000000000000011,0.0));
#510=VERTEX_POINT('',#509);
#511=CARTESIAN_POINT('',(3.962476455413516,12.000000000000011,0.0));
#512=DIRECTION('',(0.0,0.0,1.0));
#513=VECTOR('',#512,100.0);
#514=LINE('',#511,#513);
#515=EDGE_CURVE('',#510,#228,#514,.T.);
#516=ORIENTED_EDGE('',*,*,#515,.F.);
#517=CARTESIAN_POINT('',(3.962476455413516,12.000000000000011,0.0));
#518=DIRECTION('',(-0.447213595499959,0.894427190999915,0.0));
#519=VECTOR('',#518,4.472135954999570);
#520=LINE('',#517,#519);
#521=EDGE_CURVE('',#510,#295,#520,.T.);
#522=ORIENTED_EDGE('',*,*,#521,.T.);
#523=ORIENTED_EDGE('',*,*,#300,.T.);
#524=EDGE_LOOP('',(#508,#516,#522,#523));
#525=FACE_OUTER_BOUND('',#524,.T.);
#526=ADVANCED_FACE('',(#525),#507,.T.);
#527=CARTESIAN_POINT('',(3.962476455413516,12.000000000000011,0.0));
#528=DIRECTION('',(1.0,0.0,0.0));
#529=DIRECTION('',(0.0,0.0,-1.0));
#530=AXIS2_PLACEMENT_3D('',#527,#528,#529);
#531=PLANE('',#530);
#532=ORIENTED_EDGE('',*,*,#233,.T.);
#533=CARTESIAN_POINT('',(3.962476455413516,7.500000000000000,0.0));
#534=VERTEX_POINT('',#533);
#535=CARTESIAN_POINT('',(3.962476455413516,7.500000000000000,0.0));
#536=DIRECTION('',(0.0,0.0,1.0));
#537=VECTOR('',#536,100.0);
#538=LINE('',#535,#537);
#539=EDGE_CURVE('',#534,#220,#538,.T.);
#540=ORIENTED_EDGE('',*,*,#539,.F.);
#541=CARTESIAN_POINT('',(3.962476455413516,7.500000000000000,0.0));
#542=DIRECTION('',(0.0,1.0,0.0));
#543=VECTOR('',#542,4.500000000000011);
#544=LINE('',#541,#543);
#545=EDGE_CURVE('',#534,#510,#544,.T.);
#546=ORIENTED_EDGE('',*,*,#545,.T.);
#547=ORIENTED_EDGE('',*,*,#515,.T.);
#548=EDGE_LOOP('',(#532,#540,#546,#547));
#549=FACE_OUTER_BOUND('',#548,.T.);
#550=ADVANCED_FACE('',(#549),#531,.T.);
#551=CARTESIAN_POINT('',(3.962476455413516,7.500000000000000,0.0));
#552=DIRECTION('',(0.0,1.0,0.0));
#553=DIRECTION('',(0.0,0.0,1.0));
#554=AXIS2_PLACEMENT_3D('',#551,#552,#553);
#555=PLANE('',#554);
#556=ORIENTED_EDGE('',*,*,#225,.T.);
#557=CARTESIAN_POINT('',(7.062476455413517,7.500000000000000,0.0));
#558=VERTEX_POINT('',#557);
#559=CARTESIAN_POINT('',(7.062476455413517,7.500000000000000,0.0));
#560=DIRECTION('',(0.0,0.0,1.0));
#561=VECTOR('',#560,100.0);
#562=LINE('',#559,#561);
#563=EDGE_CURVE('',#558,#212,#562,.T.);
#564=ORIENTED_EDGE('',*,*,#563,.F.);
#565=CARTESIAN_POINT('',(7.062476455413517,7.500000000000000,0.0));
#566=DIRECTION('',(-1.0,0.0,0.0));
#567=VECTOR('',#566,3.100000000000001);
#568=LINE('',#565,#567);
#569=EDGE_CURVE('',#558,#534,#568,.T.);
#570=ORIENTED_EDGE('',*,*,#569,.T.);
#571=ORIENTED_EDGE('',*,*,#539,.T.);
#572=EDGE_LOOP('',(#556,#564,#570,#571));
#573=FACE_OUTER_BOUND('',#572,.T.);
#574=ADVANCED_FACE('',(#573),#555,.T.);
#575=CARTESIAN_POINT('',(7.062476455413517,7.500000000000000,0.0));
#576=DIRECTION('',(1.0,0.0,0.0));
#577=DIRECTION('',(0.0,0.0,-1.0));
#578=AXIS2_PLACEMENT_3D('',#575,#576,#577);
#579=PLANE('',#578);
#580=ORIENTED_EDGE('',*,*,#337,.F.);
#581=CARTESIAN_POINT('',(7.062476455413517,4.000000000000000,0.0));
#582=DIRECTION('',(0.0,1.0,0.0));
#583=VECTOR('',#582,3.500000000000000);
#584=LINE('',#581,#583);
#585=EDGE_CURVE('',#326,#558,#584,.T.);
#586=ORIENTED_EDGE('',*,*,#585,.T.);
#587=ORIENTED_EDGE('',*,*,#563,.T.);
#588=ORIENTED_EDGE('',*,*,#217,.T.);
#589=EDGE_LOOP('',(#580,#586,#587,#588));
#590=FACE_OUTER_BOUND('',#589,.T.);
#591=ADVANCED_FACE('',(#590),#579,.T.);
#592=CARTESIAN_POINT('',(-0.786123577316956,12.412429405709677,0.0));
#593=DIRECTION('',(0.0,0.0,1.0));
#594=DIRECTION('',(1.0,0.0,0.0));
#595=AXIS2_PLACEMENT_3D('',#592,#593,#594);
#596=PLANE('',#595);
#597=ORIENTED_EDGE('',*,*,#99,.F.);
#598=ORIENTED_EDGE('',*,*,#136,.F.);
#599=ORIENTED_EDGE('',*,*,#281,.F.);
#600=ORIENTED_EDGE('',*,*,#306,.F.);
#601=ORIENTED_EDGE('',*,*,#521,.F.);
#602=ORIENTED_EDGE('',*,*,#545,.F.);
#603=ORIENTED_EDGE('',*,*,#569,.F.);
#604=ORIENTED_EDGE('',*,*,#585,.F.);
#605=ORIENTED_EDGE('',*,*,#331,.F.);
#606=ORIENTED_EDGE('',*,*,#361,.F.);
#607=ORIENTED_EDGE('',*,*,#384,.F.);
#608=ORIENTED_EDGE('',*,*,#409,.F.);
#609=ORIENTED_EDGE('',*,*,#432,.F.);
#610=ORIENTED_EDGE('',*,*,#456,.F.);
#611=ORIENTED_EDGE('',*,*,#480,.F.);
#612=ORIENTED_EDGE('',*,*,#496,.F.);
#613=EDGE_LOOP('',(#597,#598,#599,#600,#601,#602,#603,#604,#605,#606,#607,#608,#609,#610,#611,#612));
#614=FACE_OUTER_BOUND('',#613,.T.);
#615=ADVANCED_FACE('',(#614),#596,.F.);
#616=CLOSED_SHELL('',(#109,#140,#261,#286,#310,#341,#365,#389,#413,#437,#461,#485,#502,#526,#550,#574,#591,#615));
#617=MANIFOLD_SOLID_BREP('Volumenk\S\vrper1',#616);
#618=DRAUGHTING_PRE_DEFINED_COLOUR('black');
#619=FILL_AREA_STYLE_COLOUR('Schwarz',#618);
#620=FILL_AREA_STYLE('Schwarz',(#619));
#621=SURFACE_STYLE_FILL_AREA(#620);
#622=SURFACE_SIDE_STYLE('Schwarz',(#621));
#623=SURFACE_STYLE_USAGE(.BOTH.,#622);
#624=PRESENTATION_STYLE_ASSIGNMENT((#623));
#625=STYLED_ITEM('',(#624),#617);
#626=MECHANICAL_DESIGN_GEOMETRIC_PRESENTATION_REPRESENTATION('',(#625),#36);
#627=ADVANCED_BREP_SHAPE_REPRESENTATION('ABSR',(#617),#36);
#628=SHAPE_REPRESENTATION_RELATIONSHIP('SRR','None',#627,#41);
ENDSEC;
END-ISO-10303-21;
