ISO-10303-21;
HEADER;
/* Generated by software containing ST-Developer
 * from STEP Tools, Inc. (www.steptools.com) 
 */

FILE_DESCRIPTION(
/* description */ (''),
/* implementation_level */ '2;1');

FILE_NAME(
/* name */ 
'S:\\Bilder_neu\\10170_KriTec_Fuehrungsleiste_8_gerade\\Inventordateie
n\\10170_KriTec_Fuehrungsleiste_8_gerade.stp',
/* time_stamp */ '2015-04-29T15:47:46+02:00',
/* author */ ('kostic'),
/* organization */ (''),
/* preprocessor_version */ 'ST-DEVELOPER v15.2',
/* originating_system */ 'Autodesk Inventor 2014',
/* authorisation */ '');

FILE_SCHEMA (('CONFIG_CONTROL_DESIGN'));
ENDSEC;

DATA;
#10=MECHANICAL_DESIGN_GEOMETRIC_PRESENTATION_REPRESENTATION('',(#13),#439);
#11=SHAPE_REPRESENTATION_RELATIONSHIP('SRR','None',#448,#12);
#12=ADVANCED_BREP_SHAPE_REPRESENTATION($,(#271),#438);
#13=STYLED_ITEM('',(#457),#271);
#14=PLANE('',#276);
#15=PLANE('',#277);
#16=PLANE('',#281);
#17=PLANE('',#282);
#18=PLANE('',#283);
#19=PLANE('',#284);
#20=PLANE('',#285);
#21=PLANE('',#286);
#22=PLANE('',#287);
#23=PLANE('',#288);
#24=PLANE('',#289);
#25=PLANE('',#290);
#26=FACE_OUTER_BOUND('',#40,.T.);
#27=FACE_OUTER_BOUND('',#41,.T.);
#28=FACE_OUTER_BOUND('',#42,.T.);
#29=FACE_OUTER_BOUND('',#43,.T.);
#30=FACE_OUTER_BOUND('',#44,.T.);
#31=FACE_OUTER_BOUND('',#45,.T.);
#32=FACE_OUTER_BOUND('',#46,.T.);
#33=FACE_OUTER_BOUND('',#47,.T.);
#34=FACE_OUTER_BOUND('',#48,.T.);
#35=FACE_OUTER_BOUND('',#49,.T.);
#36=FACE_OUTER_BOUND('',#50,.T.);
#37=FACE_OUTER_BOUND('',#51,.T.);
#38=FACE_OUTER_BOUND('',#52,.T.);
#39=FACE_OUTER_BOUND('',#53,.T.);
#40=EDGE_LOOP('',(#182,#183,#184,#185));
#41=EDGE_LOOP('',(#186,#187,#188,#189));
#42=EDGE_LOOP('',(#190,#191,#192,#193,#194,#195,#196,#197,#198,#199,#200,
#201));
#43=EDGE_LOOP('',(#202,#203,#204,#205));
#44=EDGE_LOOP('',(#206,#207,#208,#209));
#45=EDGE_LOOP('',(#210,#211,#212,#213));
#46=EDGE_LOOP('',(#214,#215,#216,#217));
#47=EDGE_LOOP('',(#218,#219,#220,#221));
#48=EDGE_LOOP('',(#222,#223,#224,#225));
#49=EDGE_LOOP('',(#226,#227,#228,#229));
#50=EDGE_LOOP('',(#230,#231,#232,#233));
#51=EDGE_LOOP('',(#234,#235,#236,#237));
#52=EDGE_LOOP('',(#238,#239,#240,#241));
#53=EDGE_LOOP('',(#242,#243,#244,#245,#246,#247,#248,#249,#250,#251,#252,
#253));
#54=LINE('',#367,#86);
#55=LINE('',#370,#87);
#56=LINE('',#373,#88);
#57=LINE('',#375,#89);
#58=LINE('',#376,#90);
#59=LINE('',#379,#91);
#60=LINE('',#381,#92);
#61=LINE('',#383,#93);
#62=LINE('',#385,#94);
#63=LINE('',#387,#95);
#64=LINE('',#389,#96);
#65=LINE('',#391,#97);
#66=LINE('',#393,#98);
#67=LINE('',#395,#99);
#68=LINE('',#399,#100);
#69=LINE('',#403,#101);
#70=LINE('',#404,#102);
#71=LINE('',#407,#103);
#72=LINE('',#409,#104);
#73=LINE('',#410,#105);
#74=LINE('',#413,#106);
#75=LINE('',#414,#107);
#76=LINE('',#417,#108);
#77=LINE('',#418,#109);
#78=LINE('',#421,#110);
#79=LINE('',#422,#111);
#80=LINE('',#425,#112);
#81=LINE('',#426,#113);
#82=LINE('',#428,#114);
#83=LINE('',#431,#115);
#84=LINE('',#432,#116);
#85=LINE('',#434,#117);
#86=VECTOR('',#297,1000.);
#87=VECTOR('',#300,1000.);
#88=VECTOR('',#303,5.8);
#89=VECTOR('',#304,1000.);
#90=VECTOR('',#305,5.8);
#91=VECTOR('',#308,19.3);
#92=VECTOR('',#309,2.91257063375945);
#93=VECTOR('',#310,3.5);
#94=VECTOR('',#311,5.65685424949238);
#95=VECTOR('',#312,6.);
#96=VECTOR('',#313,5.65685424949238);
#97=VECTOR('',#314,3.5);
#98=VECTOR('',#315,3.28742936624055);
#99=VECTOR('',#316,19.3);
#100=VECTOR('',#321,1000.);
#101=VECTOR('',#326,1000.);
#102=VECTOR('',#327,19.3);
#103=VECTOR('',#330,1000.);
#104=VECTOR('',#331,5.65685424949238);
#105=VECTOR('',#332,1000.);
#106=VECTOR('',#335,1000.);
#107=VECTOR('',#336,6.);
#108=VECTOR('',#339,1000.);
#109=VECTOR('',#340,5.65685424949238);
#110=VECTOR('',#343,1000.);
#111=VECTOR('',#344,3.5);
#112=VECTOR('',#347,1000.);
#113=VECTOR('',#348,2.91257063375945);
#114=VECTOR('',#351,19.3);
#115=VECTOR('',#354,1000.);
#116=VECTOR('',#355,3.28742936624055);
#117=VECTOR('',#358,3.5);
#118=CIRCLE('',#274,1.);
#119=CIRCLE('',#275,1.);
#120=CIRCLE('',#278,1.);
#121=CIRCLE('',#280,1.);
#122=VERTEX_POINT('',#363);
#123=VERTEX_POINT('',#364);
#124=VERTEX_POINT('',#366);
#125=VERTEX_POINT('',#368);
#126=VERTEX_POINT('',#372);
#127=VERTEX_POINT('',#374);
#128=VERTEX_POINT('',#378);
#129=VERTEX_POINT('',#380);
#130=VERTEX_POINT('',#382);
#131=VERTEX_POINT('',#384);
#132=VERTEX_POINT('',#386);
#133=VERTEX_POINT('',#388);
#134=VERTEX_POINT('',#390);
#135=VERTEX_POINT('',#392);
#136=VERTEX_POINT('',#394);
#137=VERTEX_POINT('',#398);
#138=VERTEX_POINT('',#402);
#139=VERTEX_POINT('',#406);
#140=VERTEX_POINT('',#408);
#141=VERTEX_POINT('',#412);
#142=VERTEX_POINT('',#416);
#143=VERTEX_POINT('',#420);
#144=VERTEX_POINT('',#424);
#145=VERTEX_POINT('',#430);
#146=EDGE_CURVE('',#122,#123,#118,.T.);
#147=EDGE_CURVE('',#123,#124,#54,.T.);
#148=EDGE_CURVE('',#124,#125,#119,.T.);
#149=EDGE_CURVE('',#125,#122,#55,.T.);
#150=EDGE_CURVE('',#123,#126,#56,.T.);
#151=EDGE_CURVE('',#127,#126,#57,.T.);
#152=EDGE_CURVE('',#127,#124,#58,.T.);
#153=EDGE_CURVE('',#128,#122,#59,.T.);
#154=EDGE_CURVE('',#129,#128,#60,.T.);
#155=EDGE_CURVE('',#130,#129,#61,.T.);
#156=EDGE_CURVE('',#131,#130,#62,.T.);
#157=EDGE_CURVE('',#132,#131,#63,.T.);
#158=EDGE_CURVE('',#133,#132,#64,.T.);
#159=EDGE_CURVE('',#134,#133,#65,.T.);
#160=EDGE_CURVE('',#135,#134,#66,.T.);
#161=EDGE_CURVE('',#136,#135,#67,.T.);
#162=EDGE_CURVE('',#126,#136,#120,.T.);
#163=EDGE_CURVE('',#136,#137,#68,.T.);
#164=EDGE_CURVE('',#137,#127,#121,.T.);
#165=EDGE_CURVE('',#138,#135,#69,.T.);
#166=EDGE_CURVE('',#138,#137,#70,.T.);
#167=EDGE_CURVE('',#132,#139,#71,.T.);
#168=EDGE_CURVE('',#139,#140,#72,.T.);
#169=EDGE_CURVE('',#140,#133,#73,.T.);
#170=EDGE_CURVE('',#141,#131,#74,.T.);
#171=EDGE_CURVE('',#141,#139,#75,.T.);
#172=EDGE_CURVE('',#130,#142,#76,.T.);
#173=EDGE_CURVE('',#142,#141,#77,.T.);
#174=EDGE_CURVE('',#143,#129,#78,.T.);
#175=EDGE_CURVE('',#143,#142,#79,.T.);
#176=EDGE_CURVE('',#144,#128,#80,.T.);
#177=EDGE_CURVE('',#144,#143,#81,.T.);
#178=EDGE_CURVE('',#125,#144,#82,.T.);
#179=EDGE_CURVE('',#145,#134,#83,.T.);
#180=EDGE_CURVE('',#145,#138,#84,.T.);
#181=EDGE_CURVE('',#140,#145,#85,.T.);
#182=ORIENTED_EDGE('',*,*,#146,.T.);
#183=ORIENTED_EDGE('',*,*,#147,.T.);
#184=ORIENTED_EDGE('',*,*,#148,.T.);
#185=ORIENTED_EDGE('',*,*,#149,.T.);
#186=ORIENTED_EDGE('',*,*,#147,.F.);
#187=ORIENTED_EDGE('',*,*,#150,.T.);
#188=ORIENTED_EDGE('',*,*,#151,.F.);
#189=ORIENTED_EDGE('',*,*,#152,.T.);
#190=ORIENTED_EDGE('',*,*,#146,.F.);
#191=ORIENTED_EDGE('',*,*,#153,.F.);
#192=ORIENTED_EDGE('',*,*,#154,.F.);
#193=ORIENTED_EDGE('',*,*,#155,.F.);
#194=ORIENTED_EDGE('',*,*,#156,.F.);
#195=ORIENTED_EDGE('',*,*,#157,.F.);
#196=ORIENTED_EDGE('',*,*,#158,.F.);
#197=ORIENTED_EDGE('',*,*,#159,.F.);
#198=ORIENTED_EDGE('',*,*,#160,.F.);
#199=ORIENTED_EDGE('',*,*,#161,.F.);
#200=ORIENTED_EDGE('',*,*,#162,.F.);
#201=ORIENTED_EDGE('',*,*,#150,.F.);
#202=ORIENTED_EDGE('',*,*,#162,.T.);
#203=ORIENTED_EDGE('',*,*,#163,.T.);
#204=ORIENTED_EDGE('',*,*,#164,.T.);
#205=ORIENTED_EDGE('',*,*,#151,.T.);
#206=ORIENTED_EDGE('',*,*,#163,.F.);
#207=ORIENTED_EDGE('',*,*,#161,.T.);
#208=ORIENTED_EDGE('',*,*,#165,.F.);
#209=ORIENTED_EDGE('',*,*,#166,.T.);
#210=ORIENTED_EDGE('',*,*,#158,.T.);
#211=ORIENTED_EDGE('',*,*,#167,.T.);
#212=ORIENTED_EDGE('',*,*,#168,.T.);
#213=ORIENTED_EDGE('',*,*,#169,.T.);
#214=ORIENTED_EDGE('',*,*,#167,.F.);
#215=ORIENTED_EDGE('',*,*,#157,.T.);
#216=ORIENTED_EDGE('',*,*,#170,.F.);
#217=ORIENTED_EDGE('',*,*,#171,.T.);
#218=ORIENTED_EDGE('',*,*,#156,.T.);
#219=ORIENTED_EDGE('',*,*,#172,.T.);
#220=ORIENTED_EDGE('',*,*,#173,.T.);
#221=ORIENTED_EDGE('',*,*,#170,.T.);
#222=ORIENTED_EDGE('',*,*,#172,.F.);
#223=ORIENTED_EDGE('',*,*,#155,.T.);
#224=ORIENTED_EDGE('',*,*,#174,.F.);
#225=ORIENTED_EDGE('',*,*,#175,.T.);
#226=ORIENTED_EDGE('',*,*,#154,.T.);
#227=ORIENTED_EDGE('',*,*,#176,.F.);
#228=ORIENTED_EDGE('',*,*,#177,.T.);
#229=ORIENTED_EDGE('',*,*,#174,.T.);
#230=ORIENTED_EDGE('',*,*,#149,.F.);
#231=ORIENTED_EDGE('',*,*,#178,.T.);
#232=ORIENTED_EDGE('',*,*,#176,.T.);
#233=ORIENTED_EDGE('',*,*,#153,.T.);
#234=ORIENTED_EDGE('',*,*,#160,.T.);
#235=ORIENTED_EDGE('',*,*,#179,.F.);
#236=ORIENTED_EDGE('',*,*,#180,.T.);
#237=ORIENTED_EDGE('',*,*,#165,.T.);
#238=ORIENTED_EDGE('',*,*,#169,.F.);
#239=ORIENTED_EDGE('',*,*,#181,.T.);
#240=ORIENTED_EDGE('',*,*,#179,.T.);
#241=ORIENTED_EDGE('',*,*,#159,.T.);
#242=ORIENTED_EDGE('',*,*,#148,.F.);
#243=ORIENTED_EDGE('',*,*,#152,.F.);
#244=ORIENTED_EDGE('',*,*,#164,.F.);
#245=ORIENTED_EDGE('',*,*,#166,.F.);
#246=ORIENTED_EDGE('',*,*,#180,.F.);
#247=ORIENTED_EDGE('',*,*,#181,.F.);
#248=ORIENTED_EDGE('',*,*,#168,.F.);
#249=ORIENTED_EDGE('',*,*,#171,.F.);
#250=ORIENTED_EDGE('',*,*,#173,.F.);
#251=ORIENTED_EDGE('',*,*,#175,.F.);
#252=ORIENTED_EDGE('',*,*,#177,.F.);
#253=ORIENTED_EDGE('',*,*,#178,.F.);
#254=CYLINDRICAL_SURFACE('',#273,1.);
#255=CYLINDRICAL_SURFACE('',#279,1.);
#256=ADVANCED_FACE('',(#26),#254,.T.);
#257=ADVANCED_FACE('',(#27),#14,.T.);
#258=ADVANCED_FACE('',(#28),#15,.T.);
#259=ADVANCED_FACE('',(#29),#255,.T.);
#260=ADVANCED_FACE('',(#30),#16,.T.);
#261=ADVANCED_FACE('',(#31),#17,.T.);
#262=ADVANCED_FACE('',(#32),#18,.T.);
#263=ADVANCED_FACE('',(#33),#19,.T.);
#264=ADVANCED_FACE('',(#34),#20,.T.);
#265=ADVANCED_FACE('',(#35),#21,.T.);
#266=ADVANCED_FACE('',(#36),#22,.T.);
#267=ADVANCED_FACE('',(#37),#23,.T.);
#268=ADVANCED_FACE('',(#38),#24,.T.);
#269=ADVANCED_FACE('',(#39),#25,.F.);
#270=CLOSED_SHELL('',(#256,#257,#258,#259,#260,#261,#262,#263,#264,#265,
#266,#267,#268,#269));
#271=MANIFOLD_SOLID_BREP('Volumenk\X\F6rper1',#270);
#272=AXIS2_PLACEMENT_3D('placement',#361,#291,#292);
#273=AXIS2_PLACEMENT_3D('',#362,#293,#294);
#274=AXIS2_PLACEMENT_3D('',#365,#295,#296);
#275=AXIS2_PLACEMENT_3D('',#369,#298,#299);
#276=AXIS2_PLACEMENT_3D('',#371,#301,#302);
#277=AXIS2_PLACEMENT_3D('',#377,#306,#307);
#278=AXIS2_PLACEMENT_3D('',#396,#317,#318);
#279=AXIS2_PLACEMENT_3D('',#397,#319,#320);
#280=AXIS2_PLACEMENT_3D('',#400,#322,#323);
#281=AXIS2_PLACEMENT_3D('',#401,#324,#325);
#282=AXIS2_PLACEMENT_3D('',#405,#328,#329);
#283=AXIS2_PLACEMENT_3D('',#411,#333,#334);
#284=AXIS2_PLACEMENT_3D('',#415,#337,#338);
#285=AXIS2_PLACEMENT_3D('',#419,#341,#342);
#286=AXIS2_PLACEMENT_3D('',#423,#345,#346);
#287=AXIS2_PLACEMENT_3D('',#427,#349,#350);
#288=AXIS2_PLACEMENT_3D('',#429,#352,#353);
#289=AXIS2_PLACEMENT_3D('',#433,#356,#357);
#290=AXIS2_PLACEMENT_3D('',#435,#359,#360);
#291=DIRECTION('axis',(0.,0.,1.));
#292=DIRECTION('refdir',(1.,0.,0.));
#293=DIRECTION('center_axis',(0.,0.,1.));
#294=DIRECTION('ref_axis',(-0.707106781186546,0.707106781186549,0.));
#295=DIRECTION('center_axis',(0.,0.,-1.));
#296=DIRECTION('ref_axis',(-0.707106781186546,0.707106781186549,0.));
#297=DIRECTION('',(0.,0.,-1.));
#298=DIRECTION('center_axis',(0.,0.,1.));
#299=DIRECTION('ref_axis',(-0.707106781186546,0.707106781186549,0.));
#300=DIRECTION('',(0.,0.,1.));
#301=DIRECTION('center_axis',(0.,1.,0.));
#302=DIRECTION('ref_axis',(0.,0.,1.));
#303=DIRECTION('',(1.,0.,0.));
#304=DIRECTION('',(0.,0.,1.));
#305=DIRECTION('',(-1.,0.,0.));
#306=DIRECTION('center_axis',(0.,0.,1.));
#307=DIRECTION('ref_axis',(1.,0.,0.));
#308=DIRECTION('',(-2.73453946952009E-017,1.,0.));
#309=DIRECTION('',(1.,0.,0.));
#310=DIRECTION('',(1.48029736616688E-016,1.,0.));
#311=DIRECTION('',(-0.707106781186547,0.707106781186548,0.));
#312=DIRECTION('',(-1.,6.95486092584221E-033,0.));
#313=DIRECTION('',(-0.707106781186548,-0.707106781186547,0.));
#314=DIRECTION('',(-2.96059473233375E-016,-1.,0.));
#315=DIRECTION('',(1.,-3.37717681793051E-016,0.));
#316=DIRECTION('',(-2.73453946952009E-017,-1.,0.));
#317=DIRECTION('center_axis',(0.,0.,-1.));
#318=DIRECTION('ref_axis',(0.707106781186546,0.707106781186549,0.));
#319=DIRECTION('center_axis',(0.,0.,1.));
#320=DIRECTION('ref_axis',(0.707106781186546,0.707106781186549,0.));
#321=DIRECTION('',(0.,0.,-1.));
#322=DIRECTION('center_axis',(0.,0.,1.));
#323=DIRECTION('ref_axis',(0.707106781186546,0.707106781186549,0.));
#324=DIRECTION('center_axis',(1.,-2.73453946952009E-017,0.));
#325=DIRECTION('ref_axis',(0.,0.,-1.));
#326=DIRECTION('',(0.,0.,1.));
#327=DIRECTION('',(2.73453946952009E-017,1.,0.));
#328=DIRECTION('center_axis',(0.707106781186547,-0.707106781186548,0.));
#329=DIRECTION('ref_axis',(0.,0.,-1.));
#330=DIRECTION('',(0.,0.,-1.));
#331=DIRECTION('',(0.707106781186548,0.707106781186547,0.));
#332=DIRECTION('',(0.,0.,1.));
#333=DIRECTION('center_axis',(-6.95486092584221E-033,-1.,0.));
#334=DIRECTION('ref_axis',(0.,0.,-1.));
#335=DIRECTION('',(0.,0.,1.));
#336=DIRECTION('',(1.,-6.95486092584221E-033,0.));
#337=DIRECTION('center_axis',(-0.707106781186548,-0.707106781186547,0.));
#338=DIRECTION('ref_axis',(0.,0.,1.));
#339=DIRECTION('',(0.,0.,-1.));
#340=DIRECTION('',(0.707106781186547,-0.707106781186548,0.));
#341=DIRECTION('center_axis',(-1.,1.48029736616688E-016,0.));
#342=DIRECTION('ref_axis',(0.,0.,1.));
#343=DIRECTION('',(0.,0.,1.));
#344=DIRECTION('',(-1.48029736616688E-016,-1.,0.));
#345=DIRECTION('center_axis',(0.,1.,0.));
#346=DIRECTION('ref_axis',(0.,0.,1.));
#347=DIRECTION('',(0.,0.,1.));
#348=DIRECTION('',(-1.,0.,0.));
#349=DIRECTION('center_axis',(-1.,-2.73453946952009E-017,0.));
#350=DIRECTION('ref_axis',(0.,0.,1.));
#351=DIRECTION('',(2.73453946952009E-017,-1.,0.));
#352=DIRECTION('center_axis',(3.37717681793051E-016,1.,0.));
#353=DIRECTION('ref_axis',(0.,0.,1.));
#354=DIRECTION('',(0.,0.,1.));
#355=DIRECTION('',(-1.,3.37717681793051E-016,0.));
#356=DIRECTION('center_axis',(1.,-2.96059473233375E-016,0.));
#357=DIRECTION('ref_axis',(0.,0.,-1.));
#358=DIRECTION('',(2.96059473233375E-016,1.,0.));
#359=DIRECTION('center_axis',(0.,0.,1.));
#360=DIRECTION('ref_axis',(1.,0.,0.));
#361=CARTESIAN_POINT('',(0.,0.,0.));
#362=CARTESIAN_POINT('Origin',(-2.9,26.8,0.));
#363=CARTESIAN_POINT('',(-3.9,26.8,1000.));
#364=CARTESIAN_POINT('',(-2.9,27.8,1000.));
#365=CARTESIAN_POINT('Origin',(-2.9,26.8,1000.));
#366=CARTESIAN_POINT('',(-2.9,27.8,0.));
#367=CARTESIAN_POINT('',(-2.9,27.8,0.));
#368=CARTESIAN_POINT('',(-3.9,26.8,0.));
#369=CARTESIAN_POINT('Origin',(-2.9,26.8,0.));
#370=CARTESIAN_POINT('',(-3.9,26.8,0.));
#371=CARTESIAN_POINT('Origin',(-3.9,27.8,0.));
#372=CARTESIAN_POINT('',(2.9,27.8,1000.));
#373=CARTESIAN_POINT('',(3.9,27.8,1000.));
#374=CARTESIAN_POINT('',(2.9,27.8,0.));
#375=CARTESIAN_POINT('',(2.9,27.8,0.));
#376=CARTESIAN_POINT('',(3.9,27.8,0.));
#377=CARTESIAN_POINT('Origin',(0.0964050567983684,12.3944976076555,1000.));
#378=CARTESIAN_POINT('',(-3.9,7.5,1000.));
#379=CARTESIAN_POINT('',(-3.9,27.8,1000.));
#380=CARTESIAN_POINT('',(-6.81257063375945,7.5,1000.));
#381=CARTESIAN_POINT('',(-3.9,7.5,1000.));
#382=CARTESIAN_POINT('',(-6.81257063375945,4.,1000.));
#383=CARTESIAN_POINT('',(-6.81257063375945,7.5,1000.));
#384=CARTESIAN_POINT('',(-2.81257063375945,-2.78194437033688E-032,1000.));
#385=CARTESIAN_POINT('',(-6.18395111303388,3.37138047927442,1000.));
#386=CARTESIAN_POINT('',(3.18742936624055,-6.95486092584221E-032,1000.));
#387=CARTESIAN_POINT('',(-6.81257063375945,0.,1000.));
#388=CARTESIAN_POINT('',(7.18742936624055,4.,1000.));
#389=CARTESIAN_POINT('',(6.51329769079388,3.32586832455333,1000.));
#390=CARTESIAN_POINT('',(7.18742936624055,7.5,1000.));
#391=CARTESIAN_POINT('',(7.18742936624055,-9.73680529617909E-032,1000.));
#392=CARTESIAN_POINT('',(3.9,7.5,1000.));
#393=CARTESIAN_POINT('',(7.18742936624055,7.5,1000.));
#394=CARTESIAN_POINT('',(3.9,26.8,1000.));
#395=CARTESIAN_POINT('',(3.9,7.5,1000.));
#396=CARTESIAN_POINT('Origin',(2.9,26.8,1000.));
#397=CARTESIAN_POINT('Origin',(2.9,26.8,0.));
#398=CARTESIAN_POINT('',(3.9,26.8,0.));
#399=CARTESIAN_POINT('',(3.9,26.8,0.));
#400=CARTESIAN_POINT('Origin',(2.9,26.8,0.));
#401=CARTESIAN_POINT('Origin',(3.9,27.8,0.));
#402=CARTESIAN_POINT('',(3.9,7.5,0.));
#403=CARTESIAN_POINT('',(3.9,7.5,0.));
#404=CARTESIAN_POINT('',(3.9,7.5,0.));
#405=CARTESIAN_POINT('Origin',(5.18742936624055,2.,0.));
#406=CARTESIAN_POINT('',(3.18742936624055,-6.95486092584221E-032,0.));
#407=CARTESIAN_POINT('',(3.18742936624055,0.,0.));
#408=CARTESIAN_POINT('',(7.18742936624055,4.,0.));
#409=CARTESIAN_POINT('',(6.51329769079388,3.32586832455333,0.));
#410=CARTESIAN_POINT('',(7.18742936624055,4.,0.));
#411=CARTESIAN_POINT('Origin',(7.18742936624055,-9.73680529617909E-032,
0.));
#412=CARTESIAN_POINT('',(-2.81257063375945,-2.78194437033688E-032,0.));
#413=CARTESIAN_POINT('',(-2.81257063375945,0.,0.));
#414=CARTESIAN_POINT('',(-6.81257063375945,0.,0.));
#415=CARTESIAN_POINT('Origin',(-4.81257063375945,2.,0.));
#416=CARTESIAN_POINT('',(-6.81257063375945,4.,0.));
#417=CARTESIAN_POINT('',(-6.81257063375945,4.,0.));
#418=CARTESIAN_POINT('',(-6.18395111303387,3.37138047927442,0.));
#419=CARTESIAN_POINT('Origin',(-6.81257063375945,0.,0.));
#420=CARTESIAN_POINT('',(-6.81257063375945,7.5,0.));
#421=CARTESIAN_POINT('',(-6.81257063375945,7.5,0.));
#422=CARTESIAN_POINT('',(-6.81257063375945,7.5,0.));
#423=CARTESIAN_POINT('Origin',(-6.81257063375945,7.5,0.));
#424=CARTESIAN_POINT('',(-3.9,7.5,0.));
#425=CARTESIAN_POINT('',(-3.9,7.5,0.));
#426=CARTESIAN_POINT('',(-3.9,7.5,0.));
#427=CARTESIAN_POINT('Origin',(-3.9,7.5,0.));
#428=CARTESIAN_POINT('',(-3.9,27.8,0.));
#429=CARTESIAN_POINT('Origin',(3.9,7.5,0.));
#430=CARTESIAN_POINT('',(7.18742936624055,7.5,0.));
#431=CARTESIAN_POINT('',(7.18742936624055,7.5,0.));
#432=CARTESIAN_POINT('',(7.18742936624055,7.5,0.));
#433=CARTESIAN_POINT('Origin',(7.18742936624055,7.5,0.));
#434=CARTESIAN_POINT('',(7.18742936624055,-9.73680529617909E-032,0.));
#435=CARTESIAN_POINT('Origin',(0.0964050567983683,12.3944976076555,0.));
#436=UNCERTAINTY_MEASURE_WITH_UNIT(LENGTH_MEASURE(0.01),#440,
'DISTANCE_ACCURACY_VALUE',
'Maximum model space distance between geometric entities at asserted c
onnectivities');
#437=UNCERTAINTY_MEASURE_WITH_UNIT(LENGTH_MEASURE(1.E-006),#440,
'DISTANCE_ACCURACY_VALUE',
'Maximum model space distance between geometric entities at asserted c
onnectivities');
#438=(
GEOMETRIC_REPRESENTATION_CONTEXT(3)
GLOBAL_UNCERTAINTY_ASSIGNED_CONTEXT((#436))
GLOBAL_UNIT_ASSIGNED_CONTEXT((#440,#443,#441))
REPRESENTATION_CONTEXT('','3D')
);
#439=(
GEOMETRIC_REPRESENTATION_CONTEXT(3)
GLOBAL_UNCERTAINTY_ASSIGNED_CONTEXT((#437))
GLOBAL_UNIT_ASSIGNED_CONTEXT((#440,#443,#441))
REPRESENTATION_CONTEXT('','3D')
);
#440=(
LENGTH_UNIT()
NAMED_UNIT(*)
SI_UNIT(.MILLI.,.METRE.)
);
#441=(
NAMED_UNIT(*)
SI_UNIT($,.STERADIAN.)
SOLID_ANGLE_UNIT()
);
#442=DIMENSIONAL_EXPONENTS(0.,0.,0.,0.,0.,0.,0.);
#443=(
CONVERSION_BASED_UNIT('degree',#445)
NAMED_UNIT(#442)
PLANE_ANGLE_UNIT()
);
#444=(
NAMED_UNIT(*)
PLANE_ANGLE_UNIT()
SI_UNIT($,.RADIAN.)
);
#445=PLANE_ANGLE_MEASURE_WITH_UNIT(PLANE_ANGLE_MEASURE(0.01745329252),#444);
#446=SHAPE_DEFINITION_REPRESENTATION(#447,#448);
#447=PRODUCT_DEFINITION_SHAPE('',$,#450);
#448=SHAPE_REPRESENTATION('',(#272),#438);
#449=DESIGN_CONTEXT('part definition',#454,'design');
#450=PRODUCT_DEFINITION('10170_KriTec_Fuehrungsleiste_8_gerade',
'10170_KriTec_Fuehrungsleiste_8_gerade',#451,#449);
#451=PRODUCT_DEFINITION_FORMATION('',$,#456);
#452=PRODUCT_RELATED_PRODUCT_CATEGORY(
'10170_KriTec_Fuehrungsleiste_8_gerade',
'10170_KriTec_Fuehrungsleiste_8_gerade',(#456));
#453=APPLICATION_PROTOCOL_DEFINITION('international standard',
'ap203_configuration_controlled_3d_design_of_mechanical_parts_and_asse
mblies_mim_lf',2004,#454);
#454=APPLICATION_CONTEXT(
'Configuration Controlled 3D Design of Mechanical Parts and Assemblies');
#455=MECHANICAL_CONTEXT('part definition',#454,'mechanical');
#456=PRODUCT('10170_KriTec_Fuehrungsleiste_8_gerade',
'10170_KriTec_Fuehrungsleiste_8_gerade',$,(#455));
#457=PRESENTATION_STYLE_ASSIGNMENT((#458));
#458=SURFACE_STYLE_USAGE(.BOTH.,#459);
#459=SURFACE_SIDE_STYLE($,(#460));
#460=SURFACE_STYLE_FILL_AREA(#461);
#461=FILL_AREA_STYLE($,(#462));
#462=FILL_AREA_STYLE_COLOUR($,#463);
#463=COLOUR_RGB('',0.32156862745098,0.32156862745098,0.32156862745098);
ENDSEC;
END-ISO-10303-21;
