ISO-10303-21;
HEADER;
/* Generated by software containing ST-Developer
 * from STEP Tools, Inc. (www.steptools.com) 
 */

FILE_DESCRIPTION(
/* description */ (''),
/* implementation_level */ '2;1');

FILE_NAME(
/* name */ 
'S:\\Bilder_neu\\10017_KriTec_Profil_M_80x8_E\\Inventordateien\\10017_
KriTec_Profil_M_80x8_E.stp',
/* time_stamp */ '2014-08-12T12:33:10+02:00',
/* author */ ('kostic'),
/* organization */ (''),
/* preprocessor_version */ 'ST-DEVELOPER v15.2',
/* originating_system */ 'Autodesk Inventor 2014',
/* authorisation */ '');

FILE_SCHEMA (('AUTOMOTIVE_DESIGN { 1 0 10303 214 3 1 1 }'));
ENDSEC;

DATA;
#10=SHAPE_REPRESENTATION_RELATIONSHIP('SRR','None',#247,#11);
#11=ADVANCED_BREP_SHAPE_REPRESENTATION($,(#144),#238);
#12=STYLED_ITEM($,(#255),#144);
#13=PLANE($,#149);
#14=PLANE($,#150);
#15=PLANE($,#154);
#16=PLANE($,#155);
#17=PLANE($,#156);
#18=PLANE($,#157);
#19=FACE_OUTER_BOUND($,#27,.T.);
#20=FACE_OUTER_BOUND($,#28,.T.);
#21=FACE_OUTER_BOUND($,#29,.T.);
#22=FACE_OUTER_BOUND($,#30,.T.);
#23=FACE_OUTER_BOUND($,#31,.T.);
#24=FACE_OUTER_BOUND($,#32,.T.);
#25=FACE_OUTER_BOUND($,#33,.T.);
#26=FACE_OUTER_BOUND($,#34,.T.);
#27=EDGE_LOOP($,(#97,#98,#99,#100));
#28=EDGE_LOOP($,(#101,#102,#103,#104));
#29=EDGE_LOOP($,(#105,#106,#107,#108,#109,#110));
#30=EDGE_LOOP($,(#111,#112,#113,#114));
#31=EDGE_LOOP($,(#115,#116,#117,#118));
#32=EDGE_LOOP($,(#119,#120,#121,#122));
#33=EDGE_LOOP($,(#123,#124,#125,#126));
#34=EDGE_LOOP($,(#127,#128,#129,#130,#131,#132));
#35=LINE($,#204,#49);
#36=LINE($,#207,#50);
#37=LINE($,#210,#51);
#38=LINE($,#212,#52);
#39=LINE($,#213,#53);
#40=LINE($,#216,#54);
#41=LINE($,#218,#55);
#42=LINE($,#220,#56);
#43=LINE($,#225,#57);
#44=LINE($,#228,#58);
#45=LINE($,#229,#59);
#46=LINE($,#232,#60);
#47=LINE($,#233,#61);
#48=LINE($,#235,#62);
#49=VECTOR($,#164,1000.);
#50=VECTOR($,#167,1000.);
#51=VECTOR($,#170,72.);
#52=VECTOR($,#171,1000.);
#53=VECTOR($,#172,72.);
#54=VECTOR($,#175,4.00000000000001);
#55=VECTOR($,#176,80.);
#56=VECTOR($,#177,4.00000000000004);
#57=VECTOR($,#184,1000.);
#58=VECTOR($,#187,1000.);
#59=VECTOR($,#188,4.00000000000004);
#60=VECTOR($,#191,4.00000000000001);
#61=VECTOR($,#192,1000.);
#62=VECTOR($,#195,80.);
#63=CIRCLE($,#147,4.);
#64=CIRCLE($,#148,4.);
#65=CIRCLE($,#151,4.);
#66=CIRCLE($,#153,4.);
#67=VERTEX_POINT($,#200);
#68=VERTEX_POINT($,#201);
#69=VERTEX_POINT($,#203);
#70=VERTEX_POINT($,#205);
#71=VERTEX_POINT($,#209);
#72=VERTEX_POINT($,#211);
#73=VERTEX_POINT($,#215);
#74=VERTEX_POINT($,#217);
#75=VERTEX_POINT($,#219);
#76=VERTEX_POINT($,#223);
#77=VERTEX_POINT($,#227);
#78=VERTEX_POINT($,#231);
#79=EDGE_CURVE($,#67,#68,#63,.T.);
#80=EDGE_CURVE($,#68,#69,#35,.T.);
#81=EDGE_CURVE($,#69,#70,#64,.T.);
#82=EDGE_CURVE($,#70,#67,#36,.T.);
#83=EDGE_CURVE($,#70,#71,#37,.T.);
#84=EDGE_CURVE($,#72,#71,#38,.T.);
#85=EDGE_CURVE($,#67,#72,#39,.T.);
#86=EDGE_CURVE($,#73,#69,#40,.T.);
#87=EDGE_CURVE($,#74,#73,#41,.T.);
#88=EDGE_CURVE($,#75,#74,#42,.T.);
#89=EDGE_CURVE($,#71,#75,#65,.T.);
#90=EDGE_CURVE($,#76,#72,#66,.T.);
#91=EDGE_CURVE($,#75,#76,#43,.T.);
#92=EDGE_CURVE($,#74,#77,#44,.T.);
#93=EDGE_CURVE($,#76,#77,#45,.T.);
#94=EDGE_CURVE($,#78,#68,#46,.T.);
#95=EDGE_CURVE($,#73,#78,#47,.T.);
#96=EDGE_CURVE($,#77,#78,#48,.T.);
#97=ORIENTED_EDGE($,*,*,#79,.T.);
#98=ORIENTED_EDGE($,*,*,#80,.T.);
#99=ORIENTED_EDGE($,*,*,#81,.T.);
#100=ORIENTED_EDGE($,*,*,#82,.T.);
#101=ORIENTED_EDGE($,*,*,#82,.F.);
#102=ORIENTED_EDGE($,*,*,#83,.T.);
#103=ORIENTED_EDGE($,*,*,#84,.F.);
#104=ORIENTED_EDGE($,*,*,#85,.F.);
#105=ORIENTED_EDGE($,*,*,#81,.F.);
#106=ORIENTED_EDGE($,*,*,#86,.F.);
#107=ORIENTED_EDGE($,*,*,#87,.F.);
#108=ORIENTED_EDGE($,*,*,#88,.F.);
#109=ORIENTED_EDGE($,*,*,#89,.F.);
#110=ORIENTED_EDGE($,*,*,#83,.F.);
#111=ORIENTED_EDGE($,*,*,#90,.T.);
#112=ORIENTED_EDGE($,*,*,#84,.T.);
#113=ORIENTED_EDGE($,*,*,#89,.T.);
#114=ORIENTED_EDGE($,*,*,#91,.T.);
#115=ORIENTED_EDGE($,*,*,#91,.F.);
#116=ORIENTED_EDGE($,*,*,#88,.T.);
#117=ORIENTED_EDGE($,*,*,#92,.T.);
#118=ORIENTED_EDGE($,*,*,#93,.F.);
#119=ORIENTED_EDGE($,*,*,#80,.F.);
#120=ORIENTED_EDGE($,*,*,#94,.F.);
#121=ORIENTED_EDGE($,*,*,#95,.F.);
#122=ORIENTED_EDGE($,*,*,#86,.T.);
#123=ORIENTED_EDGE($,*,*,#87,.T.);
#124=ORIENTED_EDGE($,*,*,#95,.T.);
#125=ORIENTED_EDGE($,*,*,#96,.F.);
#126=ORIENTED_EDGE($,*,*,#92,.F.);
#127=ORIENTED_EDGE($,*,*,#79,.F.);
#128=ORIENTED_EDGE($,*,*,#85,.T.);
#129=ORIENTED_EDGE($,*,*,#90,.F.);
#130=ORIENTED_EDGE($,*,*,#93,.T.);
#131=ORIENTED_EDGE($,*,*,#96,.T.);
#132=ORIENTED_EDGE($,*,*,#94,.T.);
#133=CYLINDRICAL_SURFACE($,#146,4.);
#134=CYLINDRICAL_SURFACE($,#152,4.);
#135=ADVANCED_FACE($,(#19),#133,.T.);
#136=ADVANCED_FACE($,(#20),#13,.T.);
#137=ADVANCED_FACE($,(#21),#14,.F.);
#138=ADVANCED_FACE($,(#22),#134,.T.);
#139=ADVANCED_FACE($,(#23),#15,.T.);
#140=ADVANCED_FACE($,(#24),#16,.T.);
#141=ADVANCED_FACE($,(#25),#17,.T.);
#142=ADVANCED_FACE($,(#26),#18,.T.);
#143=CLOSED_SHELL($,(#135,#136,#137,#138,#139,#140,#141,#142));
#144=MANIFOLD_SOLID_BREP('Volumenk\X\F6rper4',#143);
#145=AXIS2_PLACEMENT_3D('placement',#198,#158,#159);
#146=AXIS2_PLACEMENT_3D($,#199,#160,#161);
#147=AXIS2_PLACEMENT_3D($,#202,#162,#163);
#148=AXIS2_PLACEMENT_3D($,#206,#165,#166);
#149=AXIS2_PLACEMENT_3D($,#208,#168,#169);
#150=AXIS2_PLACEMENT_3D($,#214,#173,#174);
#151=AXIS2_PLACEMENT_3D($,#221,#178,#179);
#152=AXIS2_PLACEMENT_3D($,#222,#180,#181);
#153=AXIS2_PLACEMENT_3D($,#224,#182,#183);
#154=AXIS2_PLACEMENT_3D($,#226,#185,#186);
#155=AXIS2_PLACEMENT_3D($,#230,#189,#190);
#156=AXIS2_PLACEMENT_3D($,#234,#193,#194);
#157=AXIS2_PLACEMENT_3D($,#236,#196,#197);
#158=DIRECTION('axis',(0.,0.,1.));
#159=DIRECTION('refdir',(1.,0.,0.));
#160=DIRECTION('center_axis',(0.,0.,1.));
#161=DIRECTION('ref_axis',(0.707106781186546,0.707106781186549,0.));
#162=DIRECTION('center_axis',(0.,0.,-1.));
#163=DIRECTION('ref_axis',(0.707106781186546,0.707106781186549,0.));
#164=DIRECTION($,(0.,0.,-1.));
#165=DIRECTION('center_axis',(0.,0.,1.));
#166=DIRECTION('ref_axis',(0.707106781186546,0.707106781186549,0.));
#167=DIRECTION($,(0.,0.,1.));
#168=DIRECTION('center_axis',(4.16333634234434E-016,1.,0.));
#169=DIRECTION('ref_axis',(-1.,4.44089209850063E-016,0.));
#170=DIRECTION($,(-1.,4.16333634234434E-016,0.));
#171=DIRECTION($,(0.,0.,-1.));
#172=DIRECTION($,(-1.,4.16333634234434E-016,0.));
#173=DIRECTION('center_axis',(0.,0.,1.));
#174=DIRECTION('ref_axis',(1.,0.,0.));
#175=DIRECTION($,(-2.22044604925031E-015,1.,0.));
#176=DIRECTION($,(1.,-5.55111512312578E-017,0.));
#177=DIRECTION($,(-2.22044604925031E-015,-1.,0.));
#178=DIRECTION('center_axis',(0.,0.,1.));
#179=DIRECTION('ref_axis',(-0.707106781186546,0.707106781186549,0.));
#180=DIRECTION('center_axis',(0.,0.,1.));
#181=DIRECTION('ref_axis',(-0.707106781186546,0.707106781186549,0.));
#182=DIRECTION('center_axis',(0.,0.,-1.));
#183=DIRECTION('ref_axis',(-0.707106781186546,0.707106781186549,0.));
#184=DIRECTION($,(0.,0.,1.));
#185=DIRECTION('center_axis',(-1.,2.22044604925031E-015,0.));
#186=DIRECTION('ref_axis',(-2.1316282072803E-015,-1.,0.));
#187=DIRECTION($,(0.,0.,1.));
#188=DIRECTION($,(-2.22044604925031E-015,-1.,0.));
#189=DIRECTION('center_axis',(1.,2.22044604925031E-015,0.));
#190=DIRECTION('ref_axis',(-2.1316282072803E-015,1.,0.));
#191=DIRECTION($,(-2.22044604925031E-015,1.,0.));
#192=DIRECTION($,(0.,0.,1.));
#193=DIRECTION('center_axis',(-5.55111512312578E-017,-1.,0.));
#194=DIRECTION('ref_axis',(1.,-5.55111512312578E-017,0.));
#195=DIRECTION($,(1.,-5.55111512312578E-017,0.));
#196=DIRECTION('center_axis',(0.,0.,1.));
#197=DIRECTION('ref_axis',(1.,0.,0.));
#198=CARTESIAN_POINT('',(0.,0.,0.));
#199=CARTESIAN_POINT('Origin',(36.,3.99999999999999,0.));
#200=CARTESIAN_POINT('',(36.,7.99999999999999,1000.));
#201=CARTESIAN_POINT('',(40.,4.,1000.));
#202=CARTESIAN_POINT('Origin',(36.,3.99999999999999,1000.));
#203=CARTESIAN_POINT('',(40.,4.,0.));
#204=CARTESIAN_POINT($,(40.,4.,0.));
#205=CARTESIAN_POINT('',(36.,7.99999999999999,0.));
#206=CARTESIAN_POINT('Origin',(36.,3.99999999999999,0.));
#207=CARTESIAN_POINT($,(36.,7.99999999999999,0.));
#208=CARTESIAN_POINT('Origin',(40.,7.99999999999999,0.));
#209=CARTESIAN_POINT('',(-36.,8.00000000000002,0.));
#210=CARTESIAN_POINT($,(40.,7.99999999999999,0.));
#211=CARTESIAN_POINT('',(-36.,8.00000000000002,1000.));
#212=CARTESIAN_POINT($,(-36.,8.00000000000002,0.));
#213=CARTESIAN_POINT($,(40.,7.99999999999999,1000.));
#214=CARTESIAN_POINT('Origin',(-6.43424707453215E-015,4.,0.));
#215=CARTESIAN_POINT('',(40.,-9.99200722162641E-015,0.));
#216=CARTESIAN_POINT($,(40.,-9.99200722162641E-015,0.));
#217=CARTESIAN_POINT('',(-40.,-5.55111512312578E-015,0.));
#218=CARTESIAN_POINT($,(-40.,-5.55111512312578E-015,0.));
#219=CARTESIAN_POINT('',(-40.,4.00000000000003,0.));
#220=CARTESIAN_POINT($,(-40.,8.00000000000002,0.));
#221=CARTESIAN_POINT('Origin',(-36.,4.00000000000002,0.));
#222=CARTESIAN_POINT('Origin',(-36.,4.00000000000002,0.));
#223=CARTESIAN_POINT('',(-40.,4.00000000000003,1000.));
#224=CARTESIAN_POINT('Origin',(-36.,4.00000000000002,1000.));
#225=CARTESIAN_POINT($,(-40.,4.00000000000003,0.));
#226=CARTESIAN_POINT('Origin',(-40.,8.00000000000002,0.));
#227=CARTESIAN_POINT('',(-40.,-5.55111512312578E-015,1000.));
#228=CARTESIAN_POINT($,(-40.,-5.55111512312578E-015,0.));
#229=CARTESIAN_POINT($,(-40.,8.00000000000002,1000.));
#230=CARTESIAN_POINT('Origin',(40.,-9.99200722162641E-015,0.));
#231=CARTESIAN_POINT('',(40.,-9.99200722162641E-015,1000.));
#232=CARTESIAN_POINT($,(40.,-9.99200722162641E-015,1000.));
#233=CARTESIAN_POINT($,(40.,-9.99200722162641E-015,0.));
#234=CARTESIAN_POINT('Origin',(-40.,-5.55111512312578E-015,0.));
#235=CARTESIAN_POINT($,(-40.,-5.55111512312578E-015,1000.));
#236=CARTESIAN_POINT('Origin',(-8.88178419700125E-015,4.,1000.));
#237=UNCERTAINTY_MEASURE_WITH_UNIT(LENGTH_MEASURE(0.01),#239,
'DISTANCE_ACCURACY_VALUE',
'Maximum model space distance between geometric entities at asserted c
onnectivities');
#238=(
GEOMETRIC_REPRESENTATION_CONTEXT(3)
GLOBAL_UNCERTAINTY_ASSIGNED_CONTEXT((#237))
GLOBAL_UNIT_ASSIGNED_CONTEXT((#239,#242,#240))
REPRESENTATION_CONTEXT('','3D')
);
#239=(
LENGTH_UNIT()
NAMED_UNIT(*)
SI_UNIT(.MILLI.,.METRE.)
);
#240=(
NAMED_UNIT(*)
SI_UNIT($,.STERADIAN.)
SOLID_ANGLE_UNIT()
);
#241=DIMENSIONAL_EXPONENTS(0.,0.,0.,0.,0.,0.,0.);
#242=(
CONVERSION_BASED_UNIT('degree',#244)
NAMED_UNIT(#241)
PLANE_ANGLE_UNIT()
);
#243=(
NAMED_UNIT(*)
PLANE_ANGLE_UNIT()
SI_UNIT($,.RADIAN.)
);
#244=PLANE_ANGLE_MEASURE_WITH_UNIT(PLANE_ANGLE_MEASURE(0.01745329252),#243);
#245=SHAPE_DEFINITION_REPRESENTATION(#246,#247);
#246=PRODUCT_DEFINITION_SHAPE('',$,#249);
#247=SHAPE_REPRESENTATION('',(#145),#238);
#248=PRODUCT_DEFINITION_CONTEXT('3D Mechanical Parts',#252,'design');
#249=PRODUCT_DEFINITION('10017_KriTec_Profil_M_80x8_E',
'10017_KriTec_Profil_M_80x8_E',#250,#248);
#250=PRODUCT_DEFINITION_FORMATION('',$,#254);
#251=APPLICATION_PROTOCOL_DEFINITION('international standard',
'automotive_design',2009,#252);
#252=APPLICATION_CONTEXT(
'Core Data for Automotive Mechanical Design Process');
#253=PRODUCT_CONTEXT('3D Mechanical Parts',#252,'mechanical');
#254=PRODUCT('10017_KriTec_Profil_M_80x8_E',
'10017_KriTec_Profil_M_80x8_E',$,(#253));
#255=PRESENTATION_STYLE_ASSIGNMENT((#256));
#256=SURFACE_STYLE_USAGE(.BOTH.,#257);
#257=SURFACE_SIDE_STYLE($,(#258));
#258=SURFACE_STYLE_FILL_AREA(#259);
#259=FILL_AREA_STYLE($,(#260));
#260=FILL_AREA_STYLE_COLOUR($,#261);
#261=COLOUR_RGB('',0.831372549019608,0.831372549019608,0.831372549019608);
ENDSEC;
END-ISO-10303-21;
