ISO-10303-21;
HEADER;
/* Generated by software containing ST-Developer
 * from STEP Tools, Inc. (www.steptools.com) 
 */

FILE_DESCRIPTION(
/* description */ (''),
/* implementation_level */ '2;1');

FILE_NAME(
/* name */ 
'S:\\Bilder_neu\\10007_KriTec_Dichtprofil_8_2-4mm_schwarz\\Inventordat
eien\\10007_KriTec_Dichtprofil_8_2-4mm_schwarz.stp',
/* time_stamp */ '2015-01-22T09:45:25+01:00',
/* author */ ('kostic'),
/* organization */ (''),
/* preprocessor_version */ 'ST-DEVELOPER v15.2',
/* originating_system */ 'Autodesk Inventor 2014',
/* authorisation */ '');

FILE_SCHEMA (('AUTOMOTIVE_DESIGN { 1 0 10303 214 3 1 1 }'));
ENDSEC;

DATA;
#10=SHAPE_REPRESENTATION_RELATIONSHIP('SRR','None',#606,#11);
#11=ADVANCED_BREP_SHAPE_REPRESENTATION($,(#379),#597);
#12=STYLED_ITEM($,(#614),#379);
#13=FACE_OUTER_BOUND($,#32,.T.);
#14=FACE_OUTER_BOUND($,#33,.T.);
#15=FACE_OUTER_BOUND($,#34,.T.);
#16=FACE_OUTER_BOUND($,#35,.T.);
#17=FACE_OUTER_BOUND($,#36,.T.);
#18=FACE_OUTER_BOUND($,#37,.T.);
#19=FACE_OUTER_BOUND($,#38,.T.);
#20=FACE_OUTER_BOUND($,#39,.T.);
#21=FACE_OUTER_BOUND($,#40,.T.);
#22=FACE_OUTER_BOUND($,#41,.T.);
#23=FACE_OUTER_BOUND($,#42,.T.);
#24=FACE_OUTER_BOUND($,#43,.T.);
#25=FACE_OUTER_BOUND($,#44,.T.);
#26=FACE_OUTER_BOUND($,#45,.T.);
#27=FACE_OUTER_BOUND($,#46,.T.);
#28=FACE_OUTER_BOUND($,#47,.T.);
#29=FACE_OUTER_BOUND($,#48,.T.);
#30=FACE_OUTER_BOUND($,#49,.T.);
#31=FACE_OUTER_BOUND($,#50,.T.);
#32=EDGE_LOOP($,(#238,#239,#240,#241));
#33=EDGE_LOOP($,(#242,#243,#244,#245));
#34=EDGE_LOOP($,(#246,#247,#248,#249));
#35=EDGE_LOOP($,(#250,#251,#252,#253));
#36=EDGE_LOOP($,(#254,#255,#256,#257));
#37=EDGE_LOOP($,(#258,#259,#260,#261));
#38=EDGE_LOOP($,(#262,#263,#264,#265));
#39=EDGE_LOOP($,(#266,#267,#268,#269));
#40=EDGE_LOOP($,(#270,#271,#272,#273));
#41=EDGE_LOOP($,(#274,#275,#276,#277));
#42=EDGE_LOOP($,(#278,#279,#280,#281));
#43=EDGE_LOOP($,(#282,#283,#284,#285));
#44=EDGE_LOOP($,(#286,#287,#288,#289));
#45=EDGE_LOOP($,(#290,#291,#292,#293));
#46=EDGE_LOOP($,(#294,#295,#296,#297));
#47=EDGE_LOOP($,(#298,#299,#300,#301));
#48=EDGE_LOOP($,(#302,#303,#304,#305));
#49=EDGE_LOOP($,(#306,#307,#308,#309,#310,#311,#312,#313,#314,#315,#316,
#317,#318,#319,#320,#321,#322));
#50=EDGE_LOOP($,(#323,#324,#325,#326,#327,#328,#329,#330,#331,#332,#333,
#334,#335,#336,#337,#338,#339));
#51=LINE($,#495,#102);
#52=LINE($,#497,#103);
#53=LINE($,#499,#104);
#54=LINE($,#500,#105);
#55=LINE($,#503,#106);
#56=LINE($,#505,#107);
#57=LINE($,#506,#108);
#58=LINE($,#509,#109);
#59=LINE($,#511,#110);
#60=LINE($,#512,#111);
#61=LINE($,#515,#112);
#62=LINE($,#517,#113);
#63=LINE($,#518,#114);
#64=LINE($,#521,#115);
#65=LINE($,#523,#116);
#66=LINE($,#524,#117);
#67=LINE($,#527,#118);
#68=LINE($,#529,#119);
#69=LINE($,#530,#120);
#70=LINE($,#533,#121);
#71=LINE($,#535,#122);
#72=LINE($,#536,#123);
#73=LINE($,#539,#124);
#74=LINE($,#541,#125);
#75=LINE($,#542,#126);
#76=LINE($,#545,#127);
#77=LINE($,#547,#128);
#78=LINE($,#548,#129);
#79=LINE($,#551,#130);
#80=LINE($,#553,#131);
#81=LINE($,#554,#132);
#82=LINE($,#557,#133);
#83=LINE($,#559,#134);
#84=LINE($,#560,#135);
#85=LINE($,#563,#136);
#86=LINE($,#565,#137);
#87=LINE($,#566,#138);
#88=LINE($,#569,#139);
#89=LINE($,#571,#140);
#90=LINE($,#572,#141);
#91=LINE($,#575,#142);
#92=LINE($,#577,#143);
#93=LINE($,#578,#144);
#94=LINE($,#581,#145);
#95=LINE($,#583,#146);
#96=LINE($,#584,#147);
#97=LINE($,#587,#148);
#98=LINE($,#589,#149);
#99=LINE($,#590,#150);
#100=LINE($,#592,#151);
#101=LINE($,#593,#152);
#102=VECTOR($,#404,4.00248279297701);
#103=VECTOR($,#405,1000.);
#104=VECTOR($,#406,4.00248279297701);
#105=VECTOR($,#407,1000.);
#106=VECTOR($,#410,8.02246844805262);
#107=VECTOR($,#411,8.02246844805262);
#108=VECTOR($,#412,1000.);
#109=VECTOR($,#415,1.5);
#110=VECTOR($,#416,1.5);
#111=VECTOR($,#417,1000.);
#112=VECTOR($,#420,6.5);
#113=VECTOR($,#421,6.5);
#114=VECTOR($,#422,1000.);
#115=VECTOR($,#425,4.6756498965505);
#116=VECTOR($,#426,4.6756498965505);
#117=VECTOR($,#427,1000.);
#118=VECTOR($,#430,5.10547452411241);
#119=VECTOR($,#431,5.10547452411241);
#120=VECTOR($,#432,1000.);
#121=VECTOR($,#435,0.999999999999992);
#122=VECTOR($,#436,0.999999999999992);
#123=VECTOR($,#437,1000.);
#124=VECTOR($,#440,6.16457972490313);
#125=VECTOR($,#441,6.16457972490313);
#126=VECTOR($,#442,1000.);
#127=VECTOR($,#445,3.46410161513774);
#128=VECTOR($,#446,3.46410161513774);
#129=VECTOR($,#447,1000.);
#130=VECTOR($,#450,5.04204710660612);
#131=VECTOR($,#451,5.04204710660612);
#132=VECTOR($,#452,1000.);
#133=VECTOR($,#455,0.800000000000008);
#134=VECTOR($,#456,0.800000000000008);
#135=VECTOR($,#457,1000.);
#136=VECTOR($,#460,5.27247557153882);
#137=VECTOR($,#461,5.27247557153882);
#138=VECTOR($,#462,1000.);
#139=VECTOR($,#465,5.59333064222);
#140=VECTOR($,#466,5.59333064222);
#141=VECTOR($,#467,1000.);
#142=VECTOR($,#470,1.52536364098686);
#143=VECTOR($,#471,1.52536364098686);
#144=VECTOR($,#472,1000.);
#145=VECTOR($,#475,6.31139577395526);
#146=VECTOR($,#476,6.31139577395526);
#147=VECTOR($,#477,1000.);
#148=VECTOR($,#480,2.61324865405187);
#149=VECTOR($,#481,2.61324865405187);
#150=VECTOR($,#482,1000.);
#151=VECTOR($,#485,1.95904430455905);
#152=VECTOR($,#486,1.95904430455905);
#153=VERTEX_POINT($,#493);
#154=VERTEX_POINT($,#494);
#155=VERTEX_POINT($,#496);
#156=VERTEX_POINT($,#498);
#157=VERTEX_POINT($,#502);
#158=VERTEX_POINT($,#504);
#159=VERTEX_POINT($,#508);
#160=VERTEX_POINT($,#510);
#161=VERTEX_POINT($,#514);
#162=VERTEX_POINT($,#516);
#163=VERTEX_POINT($,#520);
#164=VERTEX_POINT($,#522);
#165=VERTEX_POINT($,#526);
#166=VERTEX_POINT($,#528);
#167=VERTEX_POINT($,#532);
#168=VERTEX_POINT($,#534);
#169=VERTEX_POINT($,#538);
#170=VERTEX_POINT($,#540);
#171=VERTEX_POINT($,#544);
#172=VERTEX_POINT($,#546);
#173=VERTEX_POINT($,#550);
#174=VERTEX_POINT($,#552);
#175=VERTEX_POINT($,#556);
#176=VERTEX_POINT($,#558);
#177=VERTEX_POINT($,#562);
#178=VERTEX_POINT($,#564);
#179=VERTEX_POINT($,#568);
#180=VERTEX_POINT($,#570);
#181=VERTEX_POINT($,#574);
#182=VERTEX_POINT($,#576);
#183=VERTEX_POINT($,#580);
#184=VERTEX_POINT($,#582);
#185=VERTEX_POINT($,#586);
#186=VERTEX_POINT($,#588);
#187=EDGE_CURVE($,#153,#154,#51,.T.);
#188=EDGE_CURVE($,#154,#155,#52,.T.);
#189=EDGE_CURVE($,#156,#155,#53,.T.);
#190=EDGE_CURVE($,#153,#156,#54,.T.);
#191=EDGE_CURVE($,#157,#153,#55,.T.);
#192=EDGE_CURVE($,#158,#156,#56,.T.);
#193=EDGE_CURVE($,#157,#158,#57,.T.);
#194=EDGE_CURVE($,#159,#157,#58,.T.);
#195=EDGE_CURVE($,#160,#158,#59,.T.);
#196=EDGE_CURVE($,#159,#160,#60,.T.);
#197=EDGE_CURVE($,#161,#159,#61,.T.);
#198=EDGE_CURVE($,#162,#160,#62,.T.);
#199=EDGE_CURVE($,#161,#162,#63,.T.);
#200=EDGE_CURVE($,#163,#161,#64,.T.);
#201=EDGE_CURVE($,#164,#162,#65,.T.);
#202=EDGE_CURVE($,#163,#164,#66,.T.);
#203=EDGE_CURVE($,#165,#163,#67,.T.);
#204=EDGE_CURVE($,#166,#164,#68,.T.);
#205=EDGE_CURVE($,#165,#166,#69,.T.);
#206=EDGE_CURVE($,#167,#165,#70,.T.);
#207=EDGE_CURVE($,#168,#166,#71,.T.);
#208=EDGE_CURVE($,#167,#168,#72,.T.);
#209=EDGE_CURVE($,#169,#167,#73,.T.);
#210=EDGE_CURVE($,#170,#168,#74,.T.);
#211=EDGE_CURVE($,#169,#170,#75,.T.);
#212=EDGE_CURVE($,#171,#169,#76,.T.);
#213=EDGE_CURVE($,#172,#170,#77,.T.);
#214=EDGE_CURVE($,#171,#172,#78,.T.);
#215=EDGE_CURVE($,#173,#171,#79,.T.);
#216=EDGE_CURVE($,#174,#172,#80,.T.);
#217=EDGE_CURVE($,#173,#174,#81,.T.);
#218=EDGE_CURVE($,#175,#173,#82,.T.);
#219=EDGE_CURVE($,#176,#174,#83,.T.);
#220=EDGE_CURVE($,#175,#176,#84,.T.);
#221=EDGE_CURVE($,#177,#175,#85,.T.);
#222=EDGE_CURVE($,#178,#176,#86,.T.);
#223=EDGE_CURVE($,#177,#178,#87,.T.);
#224=EDGE_CURVE($,#179,#177,#88,.T.);
#225=EDGE_CURVE($,#180,#178,#89,.T.);
#226=EDGE_CURVE($,#179,#180,#90,.T.);
#227=EDGE_CURVE($,#181,#179,#91,.T.);
#228=EDGE_CURVE($,#182,#180,#92,.T.);
#229=EDGE_CURVE($,#181,#182,#93,.T.);
#230=EDGE_CURVE($,#183,#181,#94,.T.);
#231=EDGE_CURVE($,#184,#182,#95,.T.);
#232=EDGE_CURVE($,#183,#184,#96,.T.);
#233=EDGE_CURVE($,#185,#183,#97,.T.);
#234=EDGE_CURVE($,#186,#184,#98,.T.);
#235=EDGE_CURVE($,#185,#186,#99,.T.);
#236=EDGE_CURVE($,#154,#185,#100,.T.);
#237=EDGE_CURVE($,#155,#186,#101,.T.);
#238=ORIENTED_EDGE($,*,*,#187,.T.);
#239=ORIENTED_EDGE($,*,*,#188,.T.);
#240=ORIENTED_EDGE($,*,*,#189,.F.);
#241=ORIENTED_EDGE($,*,*,#190,.F.);
#242=ORIENTED_EDGE($,*,*,#191,.T.);
#243=ORIENTED_EDGE($,*,*,#190,.T.);
#244=ORIENTED_EDGE($,*,*,#192,.F.);
#245=ORIENTED_EDGE($,*,*,#193,.F.);
#246=ORIENTED_EDGE($,*,*,#194,.T.);
#247=ORIENTED_EDGE($,*,*,#193,.T.);
#248=ORIENTED_EDGE($,*,*,#195,.F.);
#249=ORIENTED_EDGE($,*,*,#196,.F.);
#250=ORIENTED_EDGE($,*,*,#197,.T.);
#251=ORIENTED_EDGE($,*,*,#196,.T.);
#252=ORIENTED_EDGE($,*,*,#198,.F.);
#253=ORIENTED_EDGE($,*,*,#199,.F.);
#254=ORIENTED_EDGE($,*,*,#200,.T.);
#255=ORIENTED_EDGE($,*,*,#199,.T.);
#256=ORIENTED_EDGE($,*,*,#201,.F.);
#257=ORIENTED_EDGE($,*,*,#202,.F.);
#258=ORIENTED_EDGE($,*,*,#203,.T.);
#259=ORIENTED_EDGE($,*,*,#202,.T.);
#260=ORIENTED_EDGE($,*,*,#204,.F.);
#261=ORIENTED_EDGE($,*,*,#205,.F.);
#262=ORIENTED_EDGE($,*,*,#206,.T.);
#263=ORIENTED_EDGE($,*,*,#205,.T.);
#264=ORIENTED_EDGE($,*,*,#207,.F.);
#265=ORIENTED_EDGE($,*,*,#208,.F.);
#266=ORIENTED_EDGE($,*,*,#209,.T.);
#267=ORIENTED_EDGE($,*,*,#208,.T.);
#268=ORIENTED_EDGE($,*,*,#210,.F.);
#269=ORIENTED_EDGE($,*,*,#211,.F.);
#270=ORIENTED_EDGE($,*,*,#212,.T.);
#271=ORIENTED_EDGE($,*,*,#211,.T.);
#272=ORIENTED_EDGE($,*,*,#213,.F.);
#273=ORIENTED_EDGE($,*,*,#214,.F.);
#274=ORIENTED_EDGE($,*,*,#215,.T.);
#275=ORIENTED_EDGE($,*,*,#214,.T.);
#276=ORIENTED_EDGE($,*,*,#216,.F.);
#277=ORIENTED_EDGE($,*,*,#217,.F.);
#278=ORIENTED_EDGE($,*,*,#218,.T.);
#279=ORIENTED_EDGE($,*,*,#217,.T.);
#280=ORIENTED_EDGE($,*,*,#219,.F.);
#281=ORIENTED_EDGE($,*,*,#220,.F.);
#282=ORIENTED_EDGE($,*,*,#221,.T.);
#283=ORIENTED_EDGE($,*,*,#220,.T.);
#284=ORIENTED_EDGE($,*,*,#222,.F.);
#285=ORIENTED_EDGE($,*,*,#223,.F.);
#286=ORIENTED_EDGE($,*,*,#224,.T.);
#287=ORIENTED_EDGE($,*,*,#223,.T.);
#288=ORIENTED_EDGE($,*,*,#225,.F.);
#289=ORIENTED_EDGE($,*,*,#226,.F.);
#290=ORIENTED_EDGE($,*,*,#227,.T.);
#291=ORIENTED_EDGE($,*,*,#226,.T.);
#292=ORIENTED_EDGE($,*,*,#228,.F.);
#293=ORIENTED_EDGE($,*,*,#229,.F.);
#294=ORIENTED_EDGE($,*,*,#230,.T.);
#295=ORIENTED_EDGE($,*,*,#229,.T.);
#296=ORIENTED_EDGE($,*,*,#231,.F.);
#297=ORIENTED_EDGE($,*,*,#232,.F.);
#298=ORIENTED_EDGE($,*,*,#233,.T.);
#299=ORIENTED_EDGE($,*,*,#232,.T.);
#300=ORIENTED_EDGE($,*,*,#234,.F.);
#301=ORIENTED_EDGE($,*,*,#235,.F.);
#302=ORIENTED_EDGE($,*,*,#236,.T.);
#303=ORIENTED_EDGE($,*,*,#235,.T.);
#304=ORIENTED_EDGE($,*,*,#237,.F.);
#305=ORIENTED_EDGE($,*,*,#188,.F.);
#306=ORIENTED_EDGE($,*,*,#237,.T.);
#307=ORIENTED_EDGE($,*,*,#234,.T.);
#308=ORIENTED_EDGE($,*,*,#231,.T.);
#309=ORIENTED_EDGE($,*,*,#228,.T.);
#310=ORIENTED_EDGE($,*,*,#225,.T.);
#311=ORIENTED_EDGE($,*,*,#222,.T.);
#312=ORIENTED_EDGE($,*,*,#219,.T.);
#313=ORIENTED_EDGE($,*,*,#216,.T.);
#314=ORIENTED_EDGE($,*,*,#213,.T.);
#315=ORIENTED_EDGE($,*,*,#210,.T.);
#316=ORIENTED_EDGE($,*,*,#207,.T.);
#317=ORIENTED_EDGE($,*,*,#204,.T.);
#318=ORIENTED_EDGE($,*,*,#201,.T.);
#319=ORIENTED_EDGE($,*,*,#198,.T.);
#320=ORIENTED_EDGE($,*,*,#195,.T.);
#321=ORIENTED_EDGE($,*,*,#192,.T.);
#322=ORIENTED_EDGE($,*,*,#189,.T.);
#323=ORIENTED_EDGE($,*,*,#236,.F.);
#324=ORIENTED_EDGE($,*,*,#187,.F.);
#325=ORIENTED_EDGE($,*,*,#191,.F.);
#326=ORIENTED_EDGE($,*,*,#194,.F.);
#327=ORIENTED_EDGE($,*,*,#197,.F.);
#328=ORIENTED_EDGE($,*,*,#200,.F.);
#329=ORIENTED_EDGE($,*,*,#203,.F.);
#330=ORIENTED_EDGE($,*,*,#206,.F.);
#331=ORIENTED_EDGE($,*,*,#209,.F.);
#332=ORIENTED_EDGE($,*,*,#212,.F.);
#333=ORIENTED_EDGE($,*,*,#215,.F.);
#334=ORIENTED_EDGE($,*,*,#218,.F.);
#335=ORIENTED_EDGE($,*,*,#221,.F.);
#336=ORIENTED_EDGE($,*,*,#224,.F.);
#337=ORIENTED_EDGE($,*,*,#227,.F.);
#338=ORIENTED_EDGE($,*,*,#230,.F.);
#339=ORIENTED_EDGE($,*,*,#233,.F.);
#340=PLANE($,#381);
#341=PLANE($,#382);
#342=PLANE($,#383);
#343=PLANE($,#384);
#344=PLANE($,#385);
#345=PLANE($,#386);
#346=PLANE($,#387);
#347=PLANE($,#388);
#348=PLANE($,#389);
#349=PLANE($,#390);
#350=PLANE($,#391);
#351=PLANE($,#392);
#352=PLANE($,#393);
#353=PLANE($,#394);
#354=PLANE($,#395);
#355=PLANE($,#396);
#356=PLANE($,#397);
#357=PLANE($,#398);
#358=PLANE($,#399);
#359=ADVANCED_FACE($,(#13),#340,.T.);
#360=ADVANCED_FACE($,(#14),#341,.T.);
#361=ADVANCED_FACE($,(#15),#342,.T.);
#362=ADVANCED_FACE($,(#16),#343,.T.);
#363=ADVANCED_FACE($,(#17),#344,.T.);
#364=ADVANCED_FACE($,(#18),#345,.T.);
#365=ADVANCED_FACE($,(#19),#346,.T.);
#366=ADVANCED_FACE($,(#20),#347,.T.);
#367=ADVANCED_FACE($,(#21),#348,.T.);
#368=ADVANCED_FACE($,(#22),#349,.T.);
#369=ADVANCED_FACE($,(#23),#350,.T.);
#370=ADVANCED_FACE($,(#24),#351,.T.);
#371=ADVANCED_FACE($,(#25),#352,.T.);
#372=ADVANCED_FACE($,(#26),#353,.T.);
#373=ADVANCED_FACE($,(#27),#354,.T.);
#374=ADVANCED_FACE($,(#28),#355,.T.);
#375=ADVANCED_FACE($,(#29),#356,.T.);
#376=ADVANCED_FACE($,(#30),#357,.T.);
#377=ADVANCED_FACE($,(#31),#358,.F.);
#378=CLOSED_SHELL($,(#359,#360,#361,#362,#363,#364,#365,#366,#367,#368,
#369,#370,#371,#372,#373,#374,#375,#376,#377));
#379=MANIFOLD_SOLID_BREP('Volumenk\X\F6rper4',#378);
#380=AXIS2_PLACEMENT_3D('placement',#491,#400,#401);
#381=AXIS2_PLACEMENT_3D($,#492,#402,#403);
#382=AXIS2_PLACEMENT_3D($,#501,#408,#409);
#383=AXIS2_PLACEMENT_3D($,#507,#413,#414);
#384=AXIS2_PLACEMENT_3D($,#513,#418,#419);
#385=AXIS2_PLACEMENT_3D($,#519,#423,#424);
#386=AXIS2_PLACEMENT_3D($,#525,#428,#429);
#387=AXIS2_PLACEMENT_3D($,#531,#433,#434);
#388=AXIS2_PLACEMENT_3D($,#537,#438,#439);
#389=AXIS2_PLACEMENT_3D($,#543,#443,#444);
#390=AXIS2_PLACEMENT_3D($,#549,#448,#449);
#391=AXIS2_PLACEMENT_3D($,#555,#453,#454);
#392=AXIS2_PLACEMENT_3D($,#561,#458,#459);
#393=AXIS2_PLACEMENT_3D($,#567,#463,#464);
#394=AXIS2_PLACEMENT_3D($,#573,#468,#469);
#395=AXIS2_PLACEMENT_3D($,#579,#473,#474);
#396=AXIS2_PLACEMENT_3D($,#585,#478,#479);
#397=AXIS2_PLACEMENT_3D($,#591,#483,#484);
#398=AXIS2_PLACEMENT_3D($,#594,#487,#488);
#399=AXIS2_PLACEMENT_3D($,#595,#489,#490);
#400=DIRECTION('axis',(0.,0.,1.));
#401=DIRECTION('refdir',(1.,0.,0.));
#402=DIRECTION('center_axis',(-0.592972158652019,0.80522296233004,0.));
#403=DIRECTION('ref_axis',(-0.80522296233004,-0.592972158652019,0.));
#404=DIRECTION($,(-0.80522296233004,-0.592972158652019,0.));
#405=DIRECTION($,(0.,0.,1.));
#406=DIRECTION($,(-0.80522296233004,-0.592972158652019,0.));
#407=DIRECTION($,(0.,0.,1.));
#408=DIRECTION('center_axis',(-0.500919414992095,0.865493928161242,0.));
#409=DIRECTION('ref_axis',(-0.865493928161242,-0.500919414992095,0.));
#410=DIRECTION($,(-0.865493928161242,-0.500919414992095,0.));
#411=DIRECTION($,(-0.865493928161242,-0.500919414992095,0.));
#412=DIRECTION($,(0.,0.,1.));
#413=DIRECTION('center_axis',(0.825606210754552,0.564246741030474,0.));
#414=DIRECTION('ref_axis',(-0.564246741030474,0.825606210754552,0.));
#415=DIRECTION($,(-0.564246741030474,0.825606210754552,0.));
#416=DIRECTION($,(-0.564246741030474,0.825606210754552,0.));
#417=DIRECTION($,(0.,0.,1.));
#418=DIRECTION('center_axis',(0.564246741030474,-0.825606210754552,0.));
#419=DIRECTION('ref_axis',(0.825606210754552,0.564246741030474,0.));
#420=DIRECTION($,(0.825606210754552,0.564246741030474,0.));
#421=DIRECTION($,(0.825606210754552,0.564246741030474,0.));
#422=DIRECTION($,(0.,0.,1.));
#423=DIRECTION('center_axis',(0.997119322550888,0.0758489063576952,0.));
#424=DIRECTION('ref_axis',(-0.0758489063576953,0.997119322550888,0.));
#425=DIRECTION($,(-0.0758489063576952,0.997119322550888,0.));
#426=DIRECTION($,(-0.0758489063576952,0.997119322550888,0.));
#427=DIRECTION($,(0.,0.,1.));
#428=DIRECTION('center_axis',(-0.537850989024532,0.843039924087426,0.));
#429=DIRECTION('ref_axis',(-0.843039924087426,-0.537850989024532,0.));
#430=DIRECTION($,(-0.843039924087426,-0.537850989024532,0.));
#431=DIRECTION($,(-0.843039924087426,-0.537850989024532,0.));
#432=DIRECTION($,(0.,0.,1.));
#433=DIRECTION('center_axis',(0.82560621075455,0.564246741030477,0.));
#434=DIRECTION('ref_axis',(-0.564246741030477,0.82560621075455,0.));
#435=DIRECTION($,(-0.564246741030477,0.82560621075455,0.));
#436=DIRECTION($,(-0.564246741030477,0.82560621075455,0.));
#437=DIRECTION($,(0.,0.,1.));
#438=DIRECTION('center_axis',(0.644762833121316,-0.764382684932995,0.));
#439=DIRECTION('ref_axis',(0.764382684932995,0.644762833121316,0.));
#440=DIRECTION($,(0.764382684932995,0.644762833121316,0.));
#441=DIRECTION($,(0.764382684932995,0.644762833121316,0.));
#442=DIRECTION($,(0.,0.,1.));
#443=DIRECTION('center_axis',(0.997119322550888,0.0758489063576949,0.));
#444=DIRECTION('ref_axis',(-0.0758489063576949,0.997119322550888,0.));
#445=DIRECTION($,(-0.0758489063576949,0.997119322550888,0.));
#446=DIRECTION($,(-0.0758489063576949,0.997119322550888,0.));
#447=DIRECTION($,(0.,0.,1.));
#448=DIRECTION('center_axis',(0.432872581520415,0.901455117112245,0.));
#449=DIRECTION('ref_axis',(-0.901455117112245,0.432872581520415,0.));
#450=DIRECTION($,(-0.901455117112245,0.432872581520415,0.));
#451=DIRECTION($,(-0.901455117112245,0.432872581520415,0.));
#452=DIRECTION($,(0.,0.,1.));
#453=DIRECTION('center_axis',(0.901455117112251,-0.432872581520403,0.));
#454=DIRECTION('ref_axis',(0.432872581520403,0.901455117112251,0.));
#455=DIRECTION($,(0.432872581520403,0.901455117112251,0.));
#456=DIRECTION($,(0.432872581520403,0.901455117112251,0.));
#457=DIRECTION($,(0.,0.,1.));
#458=DIRECTION('center_axis',(-0.184809053369216,-0.982774447059331,0.));
#459=DIRECTION('ref_axis',(0.982774447059331,-0.184809053369216,0.));
#460=DIRECTION($,(0.982774447059331,-0.184809053369216,0.));
#461=DIRECTION($,(0.982774447059331,-0.184809053369216,0.));
#462=DIRECTION($,(0.,0.,1.));
#463=DIRECTION('center_axis',(-0.825606210754553,-0.564246741030472,0.));
#464=DIRECTION('ref_axis',(0.564246741030472,-0.825606210754553,0.));
#465=DIRECTION($,(0.564246741030472,-0.825606210754553,0.));
#466=DIRECTION($,(0.564246741030472,-0.825606210754553,0.));
#467=DIRECTION($,(0.,0.,1.));
#468=DIRECTION('center_axis',(0.288455363158326,0.957493343822921,0.));
#469=DIRECTION('ref_axis',(-0.957493343822921,0.288455363158326,0.));
#470=DIRECTION($,(-0.957493343822921,0.288455363158326,0.));
#471=DIRECTION($,(-0.957493343822921,0.288455363158326,0.));
#472=DIRECTION($,(0.,0.,1.));
#473=DIRECTION('center_axis',(-0.997119322550888,-0.0758489063576935,0.));
#474=DIRECTION('ref_axis',(0.0758489063576935,-0.997119322550888,0.));
#475=DIRECTION($,(0.0758489063576935,-0.997119322550888,0.));
#476=DIRECTION($,(0.0758489063576935,-0.997119322550888,0.));
#477=DIRECTION($,(0.,0.,1.));
#478=DIRECTION('center_axis',(0.564246741030472,-0.825606210754553,0.));
#479=DIRECTION('ref_axis',(0.825606210754553,0.564246741030472,0.));
#480=DIRECTION($,(0.825606210754553,0.564246741030472,0.));
#481=DIRECTION($,(0.825606210754553,0.564246741030472,0.));
#482=DIRECTION($,(0.,0.,1.));
#483=DIRECTION('center_axis',(-0.825606210754559,-0.564246741030463,0.));
#484=DIRECTION('ref_axis',(0.564246741030463,-0.825606210754559,0.));
#485=DIRECTION($,(0.564246741030463,-0.825606210754559,0.));
#486=DIRECTION($,(0.564246741030463,-0.825606210754559,0.));
#487=DIRECTION('center_axis',(0.,0.,1.));
#488=DIRECTION('ref_axis',(1.,0.,0.));
#489=DIRECTION('center_axis',(0.,0.,1.));
#490=DIRECTION('ref_axis',(1.,0.,0.));
#491=CARTESIAN_POINT('',(0.,0.,0.));
#492=CARTESIAN_POINT('Origin',(-6.97856827973495,6.73049788404719,0.));
#493=CARTESIAN_POINT('',(-6.97856827973495,6.73049788404719,0.));
#494=CARTESIAN_POINT('',(-10.2014593309709,4.35713702232805,0.));
#495=CARTESIAN_POINT($,(-6.97856827973495,6.73049788404719,0.));
#496=CARTESIAN_POINT('',(-10.2014593309709,4.35713702232805,1000.));
#497=CARTESIAN_POINT($,(-10.2014593309709,4.35713702232805,0.));
#498=CARTESIAN_POINT('',(-6.97856827973495,6.73049788404719,1000.));
#499=CARTESIAN_POINT($,(-6.97856827973495,6.73049788404719,1000.));
#500=CARTESIAN_POINT($,(-6.97856827973495,6.73049788404719,0.));
#501=CARTESIAN_POINT('Origin',(-0.0351705490802612,10.7491080858382,0.));
#502=CARTESIAN_POINT('',(-0.0351705490802607,10.7491080858382,0.));
#503=CARTESIAN_POINT($,(-0.0351705490802612,10.7491080858382,0.));
#504=CARTESIAN_POINT('',(-0.0351705490802612,10.7491080858382,1000.));
#505=CARTESIAN_POINT($,(-0.0351705490802612,10.7491080858382,1000.));
#506=CARTESIAN_POINT($,(-0.0351705490802607,10.7491080858382,0.));
#507=CARTESIAN_POINT('Origin',(0.81119956246545,9.51069876970642,0.));
#508=CARTESIAN_POINT('',(0.81119956246545,9.51069876970642,0.));
#509=CARTESIAN_POINT($,(0.81119956246545,9.51069876970642,0.));
#510=CARTESIAN_POINT('',(0.81119956246545,9.51069876970642,1000.));
#511=CARTESIAN_POINT($,(0.81119956246545,9.51069876970642,1000.));
#512=CARTESIAN_POINT($,(0.81119956246545,9.51069876970642,0.));
#513=CARTESIAN_POINT('Origin',(-4.55524080743914,5.84309495300834,0.));
#514=CARTESIAN_POINT('',(-4.55524080743914,5.84309495300834,0.));
#515=CARTESIAN_POINT($,(-4.55524080743914,5.84309495300834,0.));
#516=CARTESIAN_POINT('',(-4.55524080743914,5.84309495300834,1000.));
#517=CARTESIAN_POINT($,(-4.55524080743914,5.84309495300834,1000.));
#518=CARTESIAN_POINT($,(-4.55524080743914,5.84309495300834,0.));
#519=CARTESIAN_POINT('Origin',(-4.20059787627431,1.18091409567478,0.));
#520=CARTESIAN_POINT('',(-4.20059787627431,1.18091409567478,0.));
#521=CARTESIAN_POINT($,(-4.20059787627431,1.18091409567478,0.));
#522=CARTESIAN_POINT('',(-4.20059787627431,1.18091409567478,1000.));
#523=CARTESIAN_POINT($,(-4.20059787627431,1.18091409567478,1000.));
#524=CARTESIAN_POINT($,(-4.20059787627431,1.18091409567478,0.));
#525=CARTESIAN_POINT('Origin',(0.103520978963704,3.92689861790819,0.));
#526=CARTESIAN_POINT('',(0.103520978963704,3.92689861790819,0.));
#527=CARTESIAN_POINT($,(0.103520978963704,3.92689861790819,0.));
#528=CARTESIAN_POINT('',(0.103520978963705,3.92689861790819,1000.));
#529=CARTESIAN_POINT($,(0.103520978963704,3.92689861790819,1000.));
#530=CARTESIAN_POINT($,(0.103520978963704,3.92689861790819,0.));
#531=CARTESIAN_POINT('Origin',(0.667767719994176,3.10129240715365,0.));
#532=CARTESIAN_POINT('',(0.667767719994176,3.10129240715365,0.));
#533=CARTESIAN_POINT($,(0.667767719994176,3.10129240715365,0.));
#534=CARTESIAN_POINT('',(0.667767719994177,3.10129240715365,1000.));
#535=CARTESIAN_POINT($,(0.667767719994176,3.10129240715365,1000.));
#536=CARTESIAN_POINT($,(0.667767719994176,3.10129240715365,0.));
#537=CARTESIAN_POINT('Origin',(-4.04433028161078,-0.873399481277117,0.));
#538=CARTESIAN_POINT('',(-4.04433028161078,-0.873399481277117,0.));
#539=CARTESIAN_POINT($,(-4.04433028161078,-0.873399481277117,0.));
#540=CARTESIAN_POINT('',(-4.04433028161078,-0.873399481277117,1000.));
#541=CARTESIAN_POINT($,(-4.04433028161078,-0.873399481277117,1000.));
#542=CARTESIAN_POINT($,(-4.04433028161078,-0.873399481277117,0.));
#543=CARTESIAN_POINT('Origin',(-3.78158196259066,-4.3275221370107,0.));
#544=CARTESIAN_POINT('',(-3.78158196259066,-4.3275221370107,0.));
#545=CARTESIAN_POINT($,(-3.78158196259066,-4.3275221370107,0.));
#546=CARTESIAN_POINT('',(-3.78158196259066,-4.3275221370107,1000.));
#547=CARTESIAN_POINT($,(-3.78158196259066,-4.3275221370107,1000.));
#548=CARTESIAN_POINT($,(-3.78158196259066,-4.3275221370107,0.));
#549=CARTESIAN_POINT('Origin',(0.763597202380416,-6.51008608419483,0.));
#550=CARTESIAN_POINT('',(0.763597202380416,-6.51008608419483,0.));
#551=CARTESIAN_POINT($,(0.763597202380416,-6.51008608419483,0.));
#552=CARTESIAN_POINT('',(0.763597202380415,-6.51008608419483,1000.));
#553=CARTESIAN_POINT($,(0.763597202380416,-6.51008608419483,1000.));
#554=CARTESIAN_POINT($,(0.763597202380416,-6.51008608419483,0.));
#555=CARTESIAN_POINT('Origin',(0.41729913716409,-7.23125017788464,0.));
#556=CARTESIAN_POINT('',(0.41729913716409,-7.23125017788464,0.));
#557=CARTESIAN_POINT($,(0.41729913716409,-7.23125017788464,0.));
#558=CARTESIAN_POINT('',(0.417299137164091,-7.23125017788464,1000.));
#559=CARTESIAN_POINT($,(0.41729913716409,-7.23125017788464,1000.));
#560=CARTESIAN_POINT($,(0.41729913716409,-7.23125017788464,0.));
#561=CARTESIAN_POINT('Origin',(-4.7643551272888,-6.25684895859624,0.));
#562=CARTESIAN_POINT('',(-4.7643551272888,-6.25684895859624,0.));
#563=CARTESIAN_POINT($,(-4.7643551272888,-6.25684895859624,0.));
#564=CARTESIAN_POINT('',(-4.7643551272888,-6.25684895859623,1000.));
#565=CARTESIAN_POINT($,(-4.7643551272888,-6.25684895859624,1000.));
#566=CARTESIAN_POINT($,(-4.7643551272888,-6.25684895859624,0.));
#567=CARTESIAN_POINT('Origin',(-7.92037371366732,-1.63896044157565,0.));
#568=CARTESIAN_POINT('',(-7.92037371366732,-1.63896044157565,0.));
#569=CARTESIAN_POINT($,(-7.92037371366732,-1.63896044157565,0.));
#570=CARTESIAN_POINT('',(-7.92037371366732,-1.63896044157565,1000.));
#571=CARTESIAN_POINT($,(-7.92037371366732,-1.63896044157565,1000.));
#572=CARTESIAN_POINT($,(-7.92037371366732,-1.63896044157565,0.));
#573=CARTESIAN_POINT('Origin',(-6.4598481805129,-2.07895976458502,0.));
#574=CARTESIAN_POINT('',(-6.4598481805129,-2.07895976458502,0.));
#575=CARTESIAN_POINT($,(-6.4598481805129,-2.07895976458502,0.));
#576=CARTESIAN_POINT('',(-6.4598481805129,-2.07895976458502,1000.));
#577=CARTESIAN_POINT($,(-6.4598481805129,-2.07895976458502,1000.));
#578=CARTESIAN_POINT($,(-6.4598481805129,-2.07895976458502,0.));
#579=CARTESIAN_POINT('Origin',(-6.93856064755798,4.21425491389178,0.));
#580=CARTESIAN_POINT('',(-6.93856064755798,4.21425491389178,0.));
#581=CARTESIAN_POINT($,(-6.93856064755798,4.21425491389178,0.));
#582=CARTESIAN_POINT('',(-6.93856064755798,4.21425491389178,1000.));
#583=CARTESIAN_POINT($,(-6.93856064755798,4.21425491389178,1000.));
#584=CARTESIAN_POINT($,(-6.93856064755798,4.21425491389178,0.));
#585=CARTESIAN_POINT('Origin',(-9.09607496658918,2.73973787734075,0.));
#586=CARTESIAN_POINT('',(-9.09607496658918,2.73973787734075,0.));
#587=CARTESIAN_POINT($,(-9.09607496658918,2.73973787734075,0.));
#588=CARTESIAN_POINT('',(-9.09607496658918,2.73973787734075,1000.));
#589=CARTESIAN_POINT($,(-9.09607496658918,2.73973787734075,1000.));
#590=CARTESIAN_POINT($,(-9.09607496658918,2.73973787734075,0.));
#591=CARTESIAN_POINT('Origin',(-10.2014593309709,4.35713702232805,0.));
#592=CARTESIAN_POINT($,(-10.2014593309709,4.35713702232805,0.));
#593=CARTESIAN_POINT($,(-10.2014593309709,4.35713702232805,1000.));
#594=CARTESIAN_POINT('Origin',(-3.96510634341267,1.69246208657301,1000.));
#595=CARTESIAN_POINT('Origin',(-3.96510634341267,1.69246208657301,0.));
#596=UNCERTAINTY_MEASURE_WITH_UNIT(LENGTH_MEASURE(0.01),#598,
'DISTANCE_ACCURACY_VALUE',
'Maximum model space distance between geometric entities at asserted c
onnectivities');
#597=(
GEOMETRIC_REPRESENTATION_CONTEXT(3)
GLOBAL_UNCERTAINTY_ASSIGNED_CONTEXT((#596))
GLOBAL_UNIT_ASSIGNED_CONTEXT((#598,#601,#599))
REPRESENTATION_CONTEXT('','3D')
);
#598=(
LENGTH_UNIT()
NAMED_UNIT(*)
SI_UNIT(.MILLI.,.METRE.)
);
#599=(
NAMED_UNIT(*)
SI_UNIT($,.STERADIAN.)
SOLID_ANGLE_UNIT()
);
#600=DIMENSIONAL_EXPONENTS(0.,0.,0.,0.,0.,0.,0.);
#601=(
CONVERSION_BASED_UNIT('degree',#603)
NAMED_UNIT(#600)
PLANE_ANGLE_UNIT()
);
#602=(
NAMED_UNIT(*)
PLANE_ANGLE_UNIT()
SI_UNIT($,.RADIAN.)
);
#603=PLANE_ANGLE_MEASURE_WITH_UNIT(PLANE_ANGLE_MEASURE(0.01745329252),#602);
#604=SHAPE_DEFINITION_REPRESENTATION(#605,#606);
#605=PRODUCT_DEFINITION_SHAPE('',$,#608);
#606=SHAPE_REPRESENTATION('',(#380),#597);
#607=PRODUCT_DEFINITION_CONTEXT('3D Mechanical Parts',#611,'design');
#608=PRODUCT_DEFINITION('10007_KriTec_Dichtprofil_8_2-4mm_schwarz',
'10007_KriTec_Dichtprofil_8_2-4mm_schwarz',#609,#607);
#609=PRODUCT_DEFINITION_FORMATION('',$,#613);
#610=APPLICATION_PROTOCOL_DEFINITION('international standard',
'automotive_design',2009,#611);
#611=APPLICATION_CONTEXT(
'Core Data for Automotive Mechanical Design Process');
#612=PRODUCT_CONTEXT('3D Mechanical Parts',#611,'mechanical');
#613=PRODUCT('10007_KriTec_Dichtprofil_8_2-4mm_schwarz',
'10007_KriTec_Dichtprofil_8_2-4mm_schwarz',$,(#612));
#614=PRESENTATION_STYLE_ASSIGNMENT((#615));
#615=SURFACE_STYLE_USAGE(.BOTH.,#616);
#616=SURFACE_SIDE_STYLE($,(#617));
#617=SURFACE_STYLE_FILL_AREA(#618);
#618=FILL_AREA_STYLE($,(#619));
#619=FILL_AREA_STYLE_COLOUR($,#620);
#620=COLOUR_RGB('',0.250980392156863,0.250980392156863,0.250980392156863);
ENDSEC;
END-ISO-10303-21;
